Out Of Touch

-------------------------------------------------------------------------------

Out Of Touch - Red Noise

-------------------------------------------------------------------------------

 

Tabbed by: Twilightcapers

 

Tuning: EADGBe

 

 

| /  slide up

| \  slide down

| ~  vibrato or sustain

| x  Mute note

|(02:10) time marker

 

 

Another track from the great Sound-On-Sound album.

 

 

Intro: (Riff 1)

 

___G____________________________________________Bb_________________

 

e|-------------3-------3----------|-------------6------------------|

B|-------------3-------3----------|-------------6-------5----------|

G|-------------0-------0----------|-------------3-----------4------|

D|--------------------------------|-----------------------------3--|

A|-5---------------------------4~~~/5------------------------------|

E|-3---------------------------2~~~/3------------------------------|

 

 | 1 - & - 2 - & - 3 - & - 4 - & -| 1 - & - 2 - & - 3 - & - 4 - & -|

 

 

___G____________________________________________Bb_________________

 

e|-------------3-------3----------|-------------6-------6----------|

B|-------------3-------3----------|-------------6-------6----------|

G|-------------0-------0----------|-------------3-------3----------|

D|--------------------------------|--------------------------------|

A|-----------------------------4~~~/5----------------------------7~~

E|-3---------------------------2~~~/3----------------------------5~~

 

 

Verse:

 

___Bb______________________________________________________________

  "Faces  in the  street, eyes like mirrors eating holes in the..."         

e|--------------------------------|--------------------------------|

B|--------------------------------|--------------------------------|

G|--------------------------------|--------------------------------|

D|--------------------------------|--------------------------------|

A|/8------------------------------|------------------------------4~~

E|/6------------------------------|------------------------------2~~

 

 

__G____________________________________________Bb__________________

  "Back of my head..."

e|-------------3-------3----------|-------------6-------6----------|

B|-------------3-------3----------|-------------6-------6----------|

G|-------------0-------0----------|-------------3-------3----------|

D|--------------------------------|--------------------------------|

A|/5---------------------------4~~~/5------------------------------|

E|/3---------------------------2~~~/3------------------------------|

 

 

Repeat until:

 

Chorus: "Maybe it's..."

 

___F________________________________Am7____________________________

 "psy   -  cho  so-matic  or  the   voices in  my  sleep that make me..."

e|-------------1-------1----------|-------------3-------3----------|

B|-------------1-------1----------|-------------1-------1----------|

G|-------------2-------2----------|-------------2-------2----------|

D|-------------3-------3----------|-------------2-------2----------|

A|--------------------------------|-0------------------------------|

E|-1------------------------------|--------------------------------|

 

___E7______________________________________________________________

  "worry so much..."

e|--------------------------------|--------------------------------|

B|-------------5~~~~~~~~~~~-------|-------------7~~~~~~~~~~~-------|

G|--------------------------------|--------------------------------|

D|-----------------------------5~~~/6---------------------------5~~~

A|-----------------------------4~~~/5---------------------------4~~~

E|-0------------------------------|--------------------------------|

 

___E7______________________________________________________________

                                                           "but there's..."

e|--------------------------------|--------------------------------|

B|-------------8~~~~~~~~~~~-------|-------------10~~~~~~~~~~~------|

G|--------------------------------|--------------------------------|

D|/6---------------------------5~~~/6------------------------------|

A|/5---------------------------4~~~/5------------------------------|

E|--------------------------------|--------------------------------|

 

___F________________________________Am_____________________________

  "Nothing  I  can do      if  the  rumours are  untrue 'cause I'm..."

e|-------------1-------1----------|-------------0-------0----------|

B|-------------1-------1----------|-------------1-------1----------|

G|-------------2-------2----------|-------------2-------2----------|

D|-------------3-------3----------|-------------2-------2----------|

A|--------------------------------|-0---------------------------4~~~

E|-1------------------------------|-----------------------------2~~~

 

___G____________________________________________Bb_________________

  "Out of touch..."                                    "I'm out of..."

e|-------------3-------3----------|-------------6------------------|

B|-------------3-------3----------|-------------6-------5----------|

G|-------------0-------0----------|-------------3-----------4------|

D|--------------------------------|-----------------------------3--|

A|/5---------------------------4~~~/5------------------------------|

E|/3---------------------------2~~~/3------------------------------|

 

___G____________________________________________Bb_________________

 "Touch..."

e|-------------3-------3----------|-------------6------------------|

B|-------------3-------3----------|-------------6------------------|

G|-------------0-------0----------|-------------3------------------|

D|--------------------------------|--------------------------------|

A|-----------------------------4~~~/5------------------------------|

E|-3---------------------------2~~~/3------------------------------|

 

 

Middle section: (01:28) Riff 2

 

___D________________________________Ab_____________________________

          "Don't   try     to       tell    me that you     know..."

e|--------------------------------|--------------------------------|

B|--------------------------------|--------------------------------|

G|--------------------------------|--------------------------------|

D|-------------------------7------|--------------------------------|

A|-5-------7-------9--------------|-------------------------6------|

E|--------------------------------|-4-------6-------8--------------|

 

 

___C________________________________F#_____________________________

  "no      thing  about    this..."

e|--------------------------------|--------------------------------|

B|--------------------------------|--------------------------------|

G|--------------------------------|--------------------------------|

D|-------------------------5------|--------------------------------|

A|-3-------5-------7--------------|-4-4-4-4-4----------------------|

E|--------------------------------|-2-2-2-2-2----------------------|

 

 

Repeat until...

 

___C________________________________Bb______________F______________

  "Act      of      defiance..."

e|--------------------------------|--------------------------------|

B|--------------------------------|--------------------------------|

G|--------------------------------|--------------------------------|

D|-----------------2-------5------|-3------------------------------|

A|-3-------5----------------------|-1---0---1---0---3--------------|

E|--------------------------------|-----------------1---0---1--/2--|

 

Repeat riff 1, verse and chorus.

 

Ending:

 

___G____________________________________________Bb_________________

  "Touch..."

e|-------------3-------3----------|-------------6-------6----------|

B|-------------3-------3----------|-------------6-------6----------|

G|-------------0-------0----------|-------------3-------3----------|

D|--------------------------------|--------------------------------|

A|-5---------------------------4~~~/5------------------------------|

E|-3---------------------------2~~~/3------------------------------|

 

 

___Fmaj7sus2_______________________________________________________

 

e|-------------------------0------|--------------------------------|

B|-----------------1--------------|--------------------------------|

G|-------------0-------0----------|--------------------------------|

D|---------3----------------------|--------------------------------|

A|-----3--------------------------|--------------------------------|

E|-1------------------------------|--------------------------------|

 

 

 

Words & Music by Bill Nelson

© Bill Nelson 2019

  • Facebook Social Icon
  • Twitter Social Icon