The October Man

--------------------------------------------------------------------------------

The October Man - Bill Nelson

--------------------------------------------------------------------------------

 

Tabbed by twilightcapers

Classic from "The Love That Whirls".

 

Tuning: EADGBe

 

| /  slide up

| \  slide down

| h  hammer-on

| p  pull-off

| ~  vibrato

| +  harmonic

| x  Mute note

 

Intro: Same chord sequence as verses.

 

 

Verse:

 

 

___E5_______________________________________________________C#m7___

             " I   am          the  October Man... "

e|-0------------------------------|--------------------------------|

B|-0------------------------------|-------------------------0------|

G|-4------------------------------|-------------------------6------|

D|-2------------------------------|-------------------------6------|

A|-2------------------------------|-------------------------4------|

E|-0------------------------------|--------------------------------|

 

 | 1 - & - 2 - & - 3 - & - 4 - & -| 1 - & - 2 - & - 3 - & - 4 - & -|

 

 

 

___E5_______________________________________________________C#m7___

                     " I  dream of  many things... "

e|-0------------------------------|--------------------------------|

B|-0------------------------------|-------------------------0------|

G|-4------------------------------|-------------------------6------|

D|-2------------------------------|-------------------------6------|

A|-2------------------------------|-------------------------4------|

E|-0------------------------------|--------------------------------|

 

 

 

___B5_______________________________________________________C#m7___

                         " This is  my...                       de - "

e|--------------------------------|--------------------------------|

B|-0------------------------------|-------------------------0------|

G|-4------------------------------|-------------------------6------|

D|-4------------------------------|-------------------------6------|

A|-2------------------------------|-------------------------4------|

E|--------------------------------|--------------------------------|

 

 

 

____________________________________________________F#5_____A5_____

" - sire... "

e|-0------------------------------|--------------------------------|

B|-0------------------------------|--------------------------------|

G|-4------------------------------|--------------------------------|

D|-2------------------------------|-----------------4------/7------|

A|-2------------------------------|-----------------4------/7------|

E|-0------------------------------|-----------------2------/5------|

 

 | 1 - & - 2 - & - 3 - & - 4 - & -| 1 - & - 2 - & - 3 - & - 4 - & -|

 

 

Repeat throughout.

 

 

Words and music by Bill Nelson

 

© Bill Nelson 2020

  • Facebook Social Icon
  • Twitter Social Icon