Modern Music Suite

--------------------------------------------------------------------------------

Modern Music - Be Bop Deluxe

--------------------------------------------------------------------------------

 

Tabbed by twilightcapers

 

Tuning: EADGBe

 

| /  slide up

| \  slide down

| h  hammer-on

| p  pull-off

| ~  vibrato or sustain

| +  harmonic

| x  Mute note

| b  bend

| ^  quarter tone bend

| r  relax bend

| pb pre-bend

| G/B chord/bass note or chord inversion

|(xx0232) chord shape

 

 

Intro: radio broadcast samples - "...and there's nothing we can...

 

...do about it..."

e|---------------------------------|

B|---------------------------12h15-|

G|----------------------12h14------|

D|-----------------12h14-----------|

A|---------------------------------|

E|---------------------------------|

 

 

Rythym chords in brackets (3x0033) - strum freely...

 

__G_(3x0033)________________________Cadd9_(x3x033)_____________________

 (lead guitar..)

e|---------------------------------|--------------------------------15-|

B|-12~~~~~~~~~~~~~-----------12h15-|-12~~~~----------------------12----|

G|----------------------12h14------|--------pb16b14~~~~-----12h14------|

D|-----------------12h14-----------|-------------------12h14-----------|

A|---------------------------------|-----------------------------------|

E|---------------------------------|-----------------------------------|

 

__G_(3x0033)______________________________Cmaj7_(x32000)_________________

 (lead guitar..)

e|-12~~~--------------15----------------|--------------------------------|

B|------15------------------------------|--------------------------------|

G|----------14b16~~~~----14h16p14-12----|-12~~~~14---------12------------|

D|-----------------------------------14-|----------12/14-----------------|

A|--------------------------------------|----------12/14------10/12^~p10-|

E|--------------------------------------|--------------------------------|

 

__D_(xx0232)______________________________Em_(022000)______________________

(lead guitar..)

e|---------------------------------------|---------------------------------|

B|---------------------------------------|---------------------------------|

G|-12b14~~~12--11~~~12p11-12p11----------|---------------------------------|

D|------------------------------12/14p12-|-14~~~~~~------------------------|

A|---------------------------------------|-----------12^r12-10~~~~~~~~\----|

E|---------------------------------------|---------------------------------|

 

__Cmaj7_(x32000)____________________D_(xx0232)___________________________

 (lead guitar..)

e|-----------------------------------------------------------------------|

B|--------15--12~~~~~~~\---------15--12~~~~----12------------------------|

G|------------------------------------------------14b16b14-12----14b16~~~|

D|-12h14-------------------12h14------------------------------14---------|

A|-----------------------------------------------------------------------|

E|-----------------------------------------------------------------------|

 

 

Verse:

___G________________________________Cadd9__________________________

          " Modern music   on  my   radio... "

e|-3-----3--3--3-----3--3--3---3--|-3-----3--3--3-----3--3--3---3--|

B|-3-----3--3--3-----3--3--3---3--|-3-----3--3--3-----3--3--3---3--|

G|-0-----0--0--0-----0--0--0---0--|-0-----0--0--0-----0--0--0---0--|

D|-0-----0--0--0-----0--0--0---0--|-2-----2--2--2-----2--2--2---2--|

A|-2-----2--2--2-----2--2--2---2--|-3-----3--3--3-----3--3--3---3--|

E|-3-----3--3--3-----3--3--3---3--|-x-----x--x--x-----x--x--x---x--|

 

 

___G________________________________Cmaj7__________________________

       " another station     and   another     show... "

e|-3-----3--3--3-----3--3--3---3--|-0-----0--0--0-----0--0--0---0--|

B|-3-----3--3--3-----3--3--3---3--|-0-----0--0--0-----0--0--0---0--|

G|-0-----0--0--0-----0--0--0---0--|-0-----0--0--0-----0--0--0---0--|

D|-0-----0--0--0-----0--0--0---0--|-2-----2--2--2-----2--2--2---2--|

A|-2-----2--2--2-----2--2--2---2--|-3-----3--3--3-----3--3--3---3--|

E|-3-----3--3--3-----3--3--3---3--|-x-----x--x--x-----x--x--x---x--|

 

 

___D________________________________Em__________Em7sus4____________

      " If only I    could let my   feelings flow... "

e|-2-----2--2--2-----2--2--2---2--|-0-----0--0-+12+~~~~~~~~~~~~~~~~|

B|-3-----3--3--3-----3--3--3---3--|-0-----0--0-+12+~~~~~~~~~~~~~~~~|

G|-2-----2--2--2-----2--2--2---2--|-0-----0--0-+12+~~~~~~~~~~~~~~~~|

D|-0-----0--0--0-----0--0--0---0--|-2-----2--x-+12+~~~~~~~~~~~~~~~~|

A|--------------------------------|-2-----2--x-+12+~~~~~~~~~~~~~~~~|

E|--------------------------------|-0-----0--0-+12+~~~~~~~~~~~~~~~~|

                                                  ( harmonics... )

 

 

___Cmaj7____________________________D____________________________________

 (lead guitar)

e|-----------------------------------------------------------------------|

B|--------15--12~~~~~~~\---------15--12~~~~----12------------------------|

G|------------------------------------------------14b16r14-12----14b16~~~|

D|-12h14-------------------12h14------------------------------14---------|

A|-----------------------------------------------------------------------|

E|-----------------------------------------------------------------------|

 

 

 

___G_________________________________Cadd9___________________________

     " When you're lonely and you're far away... "

 

___G_________________________________Cmaj7____________________________

" when those steel guitars begin to play... "

 

___D_________________________________Em_________Em7sus4_______________

  " please don't let them steal your heart away                from... "

 

 

 

___E5__________Bsus4/E_____E5__Aadd9/E______E5_____________________

 " me... "

e|---------0---0-----------0---0--|---------0----------------------|

B|---------0---0-----------0---0--|---------0----------------------|

G|---------9---8-----------x---6--|---------x----------------------|

D|---------9---9-----------x---7--|---------x-------2---2---2------|

A|---------7---9-----------x---7--|---------x---2h4----------4p2h4-|

E|-0-------0---0---0-------0---0--|-0-------0----------------------|

 

 

___E5__________Bsus4/E_____E5__Aadd9/E______E5______________________

 

e|---------0---0-----------0---0--|---------0-----------------------|

B|---------0---0-----------0---0--|---------0-----------------------|

G|---------9---8-----------x---6--|---------x-----------------------|

D|---------9---9-----------x---7--|---------x-------5/6-----2-------|

A|---------7---9-----------x---7--|---------x-----------2h4---4p2h4-|

E|-0-------0---0---0-------0---0--|-0-------0-----------------------|

 

 

___E5__________Bsus4/E_____E5__Aadd9/E______E5______________________

 

e|---------0---0-----------0---0--|---------0-----------------------|

B|---------0---0-----------0---0--|---------0-----------------------|

G|---------9---8-----------x---6--|---------x-----------------------|

D|---------9---9-----------x---7--|---------x-------2-------2-----2-|

A|---------7---9-----------x---7--|---------x---2h4---4-------------|

E|-0-------0---0---0-------0---0--|-0-------0-----------3h4---3h4---|

 

 

___E5__________Bsus4/E_____E5__Aadd9/E_____________________________

 

e|---------0---0-----------0---0--|-0---0---0---0---0---0---0---0--|

B|---------0---0-----------0---0--|-0---0---0---0---0---0---0---0--|

G|---------9---8-----------x---6--|-6---6---6---6---6---6---6---6--|

D|---------9---9-----------x---7--|-7---7---7---7---7---7---7---7--|

A|---------7---9-----------x---7--|-7---7---7---7---7---7---7---7--|

E|-0-------0---0---0-------0---0--|-0---0---0---0---0---0---0---0--|

 

 

 

 

___G_________________________________Cadd9___________________________

          " I hear the rhythm of the rain begin... "

 

___G________________________________Cmaj7____________________________

         " a shining broadcast on a silver wind... "

 

___D_________________D_______________Em_____Em7sus4__________________

 " Will you receive these programmes deep within?... "

 

 

___Cmaj7____________________________D____________________________________

 (lead guitar)

e|-----------------------------------------------------------------------|

B|--------15--12~~~~~~~\---------15--12~~~~----12------------------------|

G|------------------------------------------------14b16b14-12----14b16~~~|

D|-12h14-------------------12h14------------------------------14---------|

A|-----------------------------------------------------------------------|

E|-----------------------------------------------------------------------|

 

 

 

___G_________________________________Cadd9___________________________

          " The moon is melting in a blazing sky... "

 

___G________________________________Cmaj7____________________________

     " I hear the flames sing but I don't know why... "

 

___D_________________D_______________Em_____Em7sus4__________________

          " I hope that only shadows see me cry... "

 

 

___Cmaj7____________________________D____________________________________

 (lead guitar)

e|-----------------------------------------------------------------------|

B|--------15--12~~~~~~~\---------15--12~~~~----12------------------------|

G|------------------------------------------------14b16b14-12----14b16~~~|

D|-12h14-------------------12h14------------------------------14---------|

A|-----------------------------------------------------------------------|

E|-----------------------------------------------------------------------|

 

 

 

___E5__________Bsus4/E_____E5__Aadd9/E______E5_____________________

" for you... "

e|---------0---0-----------0---0--|---------0----------------------|

B|---------0---0-----------0---0--|---------0----------------------|

G|---------9---8-----------x---6--|---------x----------------------|

D|---------9---9-----------x---7--|---------x-------2---2---2------|

A|---------7---9-----------x---7--|---------x---2h4----------4p2h4-|

E|-0-------0---0---0-------0---0--|-0-------0----------------------|

 

 

___E5__________Bsus4/E_____E5__Aadd9/E______E5______________________

 

e|---------0---0-----------0---0--|---------0-----------------------|

B|---------0---0-----------0---0--|---------0-----------------------|

G|---------9---8-----------x---6--|---------x-----------------------|

D|---------9---9-----------x---7--|---------x-------5/6-----2-------|

A|---------7---9-----------x---7--|---------x-----------2h4---4p2h4-|

E|-0-------0---0---0-------0---0--|-0-------0-----------------------|

 

 

___E5__________Bsus4/E_____E5__Aadd9/E______E5______________________

 

e|---------0---0-----------0---0--|---------0-----------------------|

B|---------0---0-----------0---0--|---------0-----------------------|

G|---------9---8-----------x---6--|---------x-----------------------|

D|---------9---9-----------x---7--|---------x-------2-------2-----2-|

A|---------7---9-----------x---7--|---------x---2h4---4-------------|

E|-0-------0---0---0-------0---0--|-0-------0-----------3h4---3h4---|

 

 

___E5__________Bsus4/E_____E5__Aadd9/E_____________________________

 

e|---------0---0-----------0---0--|-0---0---0---0---0---0---0---0--|

B|---------0---0-----------0---0--|-0---0---0---0---0---0---0---0--|

G|---------9---8-----------x---6--|-6---6---6---6---6---6---6---6--|

D|---------9---9-----------x---7--|-7---7---7---7---7---7---7---7--|

A|---------7---9-----------x---7--|-7---7---7---7---7---7---7---7--|

E|-0-------0---0---0-------0---0--|-0---0---0---0---0---0---0---0--|

 

 

 

__Aadd9/E__________________________

 (lead guitar)

e|----------------------19b21~~~---|

B|---14-16p14-17p16p14-------------|

G|/16-----------------16-----------|

D|---------------------------------|

A|---------------------------------|

E|---------------------------------|

 

 

 

___C_(x32010)__G/B_(320003)__________Am7_(x02213)___________________

                                          " I feel like I'm falling... "

e|---------------------------------|----------3---------------------|

B|---------------------------------|----------1---------------------|

G|---------0---------------0-------|-------2------------------------|

D|-----2---------------0-------0---|----2---------------------------|

A|-3-----------2-------------------|-0------------------------------|

E|---------------------------------|--------------------------------|

 

 

___C___________G/B__________________Am7_____________________________

                                        " the mu - sic is calling... "

e|---------------------------------|----------3---------------------|

B|---------------------------------|----------1---------------------|

G|---------0---------------0-------|-------2------------------------|

D|-----2---------------0-------0---|----2---------------------------|

A|-3-----------2-------------------|-0------------------------------|

E|---------------------------------|--------------------------------|

 

 | 1 - & - 2 - & - 3 - & - 4 - & - | 1 - & - 2 - & - 3 - & - 4 - & -|

 

___D_________________________________F_______________________________

 " me          a - way               leave       to  day... "

e|-2-------2---2---2---------------|-1-------1---1---1--------------|

B|-3-------3---3---3---------------|-1-------1---1---1--------------|

G|-2-------2---2---2---------------|-2-------2---2---2--------------|

D|-0-------0---0---0---------------|-3-------3---3---3--------------|

A|---------------------------------|-3-------3---3---3--------------|

E|---------------------------------|-1-------1---1---1--------------|

 

 

(same chords as above...)

 

 

___C___________G/B__________________Am7_______________________________

                                         " you know that I'm needing... "

 

___C___________G/B__________________Am7_______________________________

                                     " all the love that I'm leaving... "

 

___D_________________________________F___________________________E_(022100)

 " here        with you            a song        for two... "

 

 

 

___A____________________________________F_______________E__________

 " ooh...(etc)..."

e|-0---0---0---0---0---0---0---0---|----1---1---1--------0---0------|

B|-2---2---2---2---2---2---2---2---|----1---1---1--------0---0------|

G|-2---2---2---2---2---2---2---2---|----2---2---2--------1---1------|

D|-2---2---2---2---2---2---2---2---|----3---3---3--------2---2------|

A|-0---0---0---0---0---0---0---0---|----3---3---3--------2---2------|

E|---------------------------------|----1---1---1--------0---0------|

 (lead guitar)

e|---------------------------------|--------------------------------|

B|----------7h10p9p7h9p5h7---------|--------------------------------|

G|-------6h9--------------6h9~~~~~~~~~~~~~~~~~~~~~~~~---------------|

D|----7h9--------------------------|--------------------------------|

A|-7h9-----------------------------|--------------------------------|

E|---------------------------------|--------------------------------|

 

 | 1 - & - 2 - & - 3 - & - 4 - & - | 1 - & - 2 - & - 3 - & - 4 - & -|

 

 

___A____________________________________F_______________E__________

 " ooh...(etc)..."

e|-0---0---0---0---0---0---0---0--|-----1---1---1-------0---0------|

B|-2---2---2---2---2---2---2---2--|-----1---1---1-------0---0------|

G|-2---2---2---2---2---2---2---2--|-----2---2---2-------1---1------|

D|-2---2---2---2---2---2---2---2--|-----3---3---3-------2---2------|

A|-0---0---0---0---0---0---0---0--|-----3---3---3-------2---2------|

E|--------------------------------|-----1---1---1-------0---0------|

 (lead guitar)

e|-7b9--7-5-----------------------|--------------------------------|

B|----------7-5-------------------|--------------------------------|

G|--------------7-6---------------|--------------------------------|

D|------------------9-7-9h11-7----|--------------------------------|

A|-----------------------------7h9~~~~~~~~~~~~~~~~~~~--------------|

E|--------------------------------|--------------------------------|

 

 

 

(Part two: Dancing In The Moonlight...)

 

 

 

___Aadd9____________________________Asus4(add9)____________________

 

e|-0-----0-----0-----0-----0---0--|-0-----0-----0-----0-----0---0--|

B|-0-----0-----0-----0-----0---0--|-0-----0-----0-----0-----0---0--|

G|-6-----6-----6-----6-----6---6--|-7-----7-----7-----7-----7---7--|

D|-7-----7-----7-----7-----7---7--|-7-----7-----7-----7-----7---7--|

A|-0-----0-----0-----0-----0---0--|-0-----0-----0-----0-----0---0--|

E|--------------------------------|--------------------------------|

 

 

Repeat or play lead line below...

 

 

___Aadd9____________________________Asus4(add9)_____________________

  (Tremelo picking ~~~)

e|-17~~~~16-14--------------------|---------------------------------|

B|------------17-15-14h15p14------|---------------------------------|

G|--------------------------16-13-|-14~~~~~13-11--------------------|

D|--------------------------------|-------------14-12-11h12p11------|

A|--------------------------------|---------------------------14-12-|

E|--------------------------------|---------------------------------|

 

 

___Aadd9____________________________Asus4(add9)________________________Aadd9___

 

e|--------------------------------|----------------------------------|---------|

B|--------------------------------|----------------------------------|---------|

G|--------------------------11-13-|-14~~~~~~~~~~~~~~~16~~~~~~~~~~~~~~|~18~~~~~~|

D|-11~~~~~~~~~~-----11-12-14------|----------------------------------|---------|

A|-------------12-14--------------|----------------------------------|---------|

E|--------------------------------|----------------------------------|---------|

 

 

Verse (1):

 

___Aadd9____________________________F#m_________________________E__

" Burning        my love for you is burning... "

e|-0-----0-----0-----0-----0---0--|-2-----2-----2-----2-----2---0--|

B|-0-----0-----0-----0-----0---0--|-2-----2-----2-----2-----2---0--|

G|-6-----6-----6-----6-----6---6--|-2-----2-----2-----2-----2---1--|

D|-7-----7-----7-----7-----7---7--|-4-----4-----4-----4-----4---2--|

A|-0-----0-----0-----0-----0---0--|-4-----4-----4-----4-----4---2--|

E|--------------------------------|-2-----2-----2-----2-----2---0--|

 

 

___Aadd9____________________________F#m_________________________E__

" Yearning   for the day when I'm returning... "

e|-0-----0-----0-----0-----0---0--|-2-----2-----2-----2-----2---0--|

B|-0-----0-----0-----0-----0---0--|-2-----2-----2-----2-----2---0--|

G|-6-----6-----6-----6-----6---6--|-2-----2-----2-----2-----2---1--|

D|-7-----7-----7-----7-----7---7--|-4-----4-----4-----4-----4---2--|

A|-0-----0-----0-----0-----0---0--|-4-----4-----4-----4-----4---2--|

E|--------------------------------|-2-----2-----2-----2-----2---0--|

 

 

___D________________________________Dm_____________________________

" All alone      I wonder if you're all alone... "

e|-2-----2-----2-----2-----2---2--|-1-----1-----1-----1-----1---1--|

B|-3-----3-----3-----3-----3---3--|-3-----3-----3-----3-----3---3--|

G|-2-----2-----2-----2-----2---2--|-2-----2-----2-----2-----2---2--|

D|-0-----0-----0-----0-----0---0--|-0-----0-----0-----0-----0---0--|

A|--------------------------------|--------------------------------|

E|--------------------------------|--------------------------------|

 

 

After first verse:

 

 

___A_______________F#m______________Bm__________E__________________

 (Organ, keyboard solo)

e|-0-------0-------2-2---2-2------|-2-2---2-2---0------------------|

B|-2-------2-------2-2---2-2------|-3-3---3-3---0------------------|

G|-2-------2-------2-2---2-2------|-4-4---4-4---1------------------|

D|-2-------2-------4-4---4-4------|-4-4---4-4---2------------------|

A|-0-------0-------4-4---4-4------|-2-2---2-2---2------------------|

E|-----------------2-2---2-2------|-------------0------------/+12+-|

                                                          +harmonic+

 

Verse (2): (same chords as before...)

 

 

 

___Aadd9_(x07600)___________________F#m_(244222)________________E_(022100)_

" Moonlight   you're dancing in the moonlight... "

 

 

___Aadd9____________________________F#m_________________________E__

" All night      I need to hold you all night... "

 

 

___D_(xx0232)_______________________Dm_(xx0231)____________________

" All alone      I wonder if you're all alone... "

 

 

 

 (riff)

e|------------------------------------------------------|

B|------------------------------------------------------|

G|------------------------------------------------------|

D|-2------2------2------2-----------------------4-3-2---|

A|-0------0------0------0-------0---------4-3-2---------|

E|-----4------4------4------4-------4-3-2---------------|

 

Chorus:

 

___D___________Dmaj7_______D6_______Dm__________Dm(maj7)____Dm6____

 " when        will        this     jour   -    ney         be... "

e|-2-----2-----2-----2-----2---2--|-1-----1-----1-----1-----1---1--|

B|-3-----3-----2-----2-----0---0--|-3-----3-----2-----2-----0---0--|

G|-2-----2-----2-----2-----2---2--|-2-----2-----2-----2-----2---2--|

D|-0-----0-----0-----0-----0---0--|-0-----0-----0-----0-----0---0--|

A|--------------------------------|--------------------------------|

E|--------------------------------|--------------------------------|

 

 

________________________________________________________

"..through? "

e|------------------------------------------------------|

B|------------------------------------------------------|

G|------------------------------------------------------|

D|-2------2------2------2-----------------------4-3-2---|

A|-0------0------0------0-------0---------4-3-2---------|

E|-----4------4------4------4-------4-3-2---------------|

 

 

 

___D___________Dmaj7_______D6_______Dm__________Dm(maj7)____Dm6____

 " I'd         like        to       make        love           to... "

e|-2-----2-----2-----2-----2---2--|-1-----1-----1-----1-----1---1--|

B|-3-----3-----2-----2-----0---0--|-3-----3-----2-----2-----0---0--|

G|-2-----2-----2-----2-----2---2--|-2-----2-----2-----2-----2---2--|

D|-0-----0-----0-----0-----0---0--|-0-----0-----0-----0-----0---0--|

A|--------------------------------|--------------------------------|

E|--------------------------------|--------------------------------|

 

 

___Bm_______________________________E______________________________

 " you...                        to you... "

e|-2-----2-----2-----2-----2---2--|-0------------------------------|

B|-3-----3-----3-----3-----3---3--|-0------------------------------|

G|-4-----4-----4-----4-----4---4--|-1------------------------------|

D|-4-----4-----4-----4-----4---4--|-2------------------------------|

A|-2-----2-----2-----2-----2---2--|-2------------------------------|

E|--------------------------------|-0------------------------------|

 

 

___F_(x87565)_______________________E_(x76454)_____________________

 (lead guitar)

e|-----5--------------------------|--------------------------------|

B|---x---------8---------6--------|-5------------------------------|

G|-x------------------------------|--------------------------------|

D|--------------------------------|--------------------------------|

A|--------------------------------|--------------------------------|

E|--------------------------------|--------------------------------|

 

 

verse (3)

 

 

___Aadd9____________________________F#m_________________________E__

" Moonlight   you're dancing in the moonlight... "

 

___Aadd9____________________________F#m_________________________E__

" All night      I need to hold you all night... "

 

___D________________________________Dm_____________________________

" All alone      I wonder if you're all alone... "

 

 

 (riff)

e|------------------------------------------------------|

B|------------------------------------------------------|

G|------------------------------------------------------|

D|-2------2------2------2-----------------------4-3-2---|

A|-0------0------0------0-------0---------4-3-2---------|

E|-----4------4------4------4-------4-3-2---------------|

 

 

___D________________________________Dm_____________________________

" All alone      I wonder if you're all alone... "

e|-2-----2-----2-----2-----2---2--|-1-----1-----1-----1-----1---1--|

B|-3-----3-----3-----3-----3---3--|-3-----3-----3-----3-----3---3--|

G|-2-----2-----2-----2-----2---2--|-2-----2-----2-----2-----2---2--|

D|-0-----0-----0-----0-----0---0--|-0-----0-----0-----0-----0---0--|

A|--------------------------------|--------------------------------|

E|--------------------------------|--------------------------------|

(Part three: Honeymoon On Mars...)

 

____G______________________G/F#________Em______________________________

        " I wonder if you're all     alone      beneath those diamond... "

e|-----------3-----------3-------3---|---------0---0---0-0---0---0-0---|

B|-----------3-----------3-------3---|---------0---0---0-0---0---0-0---|

G|-----------0-----------0-------0---|---------0---0---0-0---0---0-0---|

D|-----------0---------0-------0-----|---------2---2---2-2---2---2-2---|

A|-----------------------------------|---------2---2---2-2---2---2-2---|

E|-2-3--------------3-------2--------|-0-------0---0---0-0---0---0-0---|

 

 

___A___________________________________Cadd9___________________________

" stars                 a honeymoon on mars... "

e|-----------------------------------|-0-------0-------0-------0-------|

B|-2---------------------------------|-3---------3-------3-------3-----|

G|-2---------------2~----------------|-0-----------0-------0-------0---|

D|-2-----------2---------------------|-2-------------------------------|

A|-0---0---4-------------------------|-3-------------------------------|

E|-----------------------------------|---------------------------------|

 

 

___G______________________G/F#_______Em______________________________

       " Tonight this desert world is ours     I'll meet you by the... "

e|---------3-----------3-------3---|---------0---0---0-0---0---0-0---|

B|---------3-----------3-------3---|---------0---0---0-0---0---0-0---|

G|---------0-----------0-------0---|---------0---0---0-0---0---0-0---|

D|---------0---------0-------0-----|---------2---2---2-2---2---2-2---|

A|---------------------------------|---------2---2---2-2---2---2-2---|

E|-3--------------3-------2--------|-0-------0---0---0-0---0---0-0---|

 

 

___A___________________________________Cadd9____________________________

" towers          for cocktails in the bars... "

e|-----------------------------------|-0-------0-------0-------0--------|

B|-2---------------------------------|-3---------3-------3-------3------|

G|-2---------------2-----------------|-0-----------0-------0-------0----|

D|-2-----------2---------------------|-2--------------------------------|

A|-0---0---4-------------------------|-3--------------------------------|

E|-----------------------------------|----------------------------------|

 

 

___D_______________Dsus4_______________Cadd9_____________________________

         " Martian honeymoon                   we're going out there in... "

e|-2-------2-----2--3--2---0---2-----|-0-------0-----0--0--0---0--0--0---|

B|-3-------3-----3--3--3---3---3-----|-3-------3-----3--3--3---3--3--3---|

G|-2-------3-----3--3--3---3---3-----|-0-------0-----0--0--0---0--0--0---|

D|-0-------0-----0--0--0---0---0-----|-2-------2-----2--2--2---2--2--2---|

A|-----------------------------------|-3-------3-----3--3--3---3--3--3---|

E|-----------------------------------|-----------------------------------|

 

 

___G______________G/F#______________Em______________________________

" July.............................."

e|----3-3-3---3-------3-3-3---3---|-0---0-0-0---0-------0-0-0---0---|

B|----3-3-3---3-------3-3-3---3---|-0---0-0-0---0-------0-0-0---0---|

G|----0-0-0---0-------0-0-0---0---|-0---0-0-0---0-------0-0-0---0---|

D|----0-0-0---0-------0-0-0---0---|-2---2-2-2---2-------2-2-2---2---|

A|--------------------------------|-2---2-2-2---2-------2-2-2---2---|

E|-3--------------2---------------|-0---0-0-0---0-------0-0-0---0---|

 

 

___D_______________Dsus4_______________Cadd9_____________________________

         " Martian honeymoon            we'll watch the passing show go... "

e|-2-------2-----2--3--2---0---2-----|-0-------0-----0--0--0---0--0--0---|

B|-3-------3-----3--3--3---3---3-----|-3-------3-----3--3--3---3--3--3---|

G|-2-------3-----3--3--3---3---3-----|-0-------0-----0--0--0---0--0--0---|

D|-0-------0-----0--0--0---0---0-----|-2-------2-----2--2--2---2--2--2---|

A|-----------------------------------|-3-------3-----3--3--3---3--3--3---|

E|-----------------------------------|-----------------------------------|

 

 

___G______________G/F#______________Em______________________________

" by...                               Flash Gordonís ghost will never... "

e|----3-3-3---3-------3-3-3---3---|-0-------------------------------|

B|----3-3-3---3-------3-3-3---3---|-0-------------------------------|

G|----0-0-0---0-------0-0-0---0---|-0-------------------------------|

D|----0-0-0---0-------0-0-0---0---|-2-------------------------------|

A|--------------------------------|-2-------------------------------|

E|-3--------------2---------------|-0-------------------------------|

 

 

___A________________________________Cadd9___________________________

" die...                               he's just a flash across the... " 

e|-0-----0-0---0-------0----------|-0-------------------------------|

B|-2-----2-2---2-------2----------|-3-------------------------------|

G|-2-----2-2---2-------2----------|-0-------------------------------|

D|-2-----2-2---2-------2----------|-2-------------------------------|

A|-0-----0-0---0-------0------0-2-|-3-------------------------------|

E|--------------------------------|---------------------------------|

 

 

___G___________________________________Cadd9_______________________________

" sky...                                   he's just a flash across the... "

e|-3---3-------3----------------------|---------0--------------------------|

B|-3h5-3-------3---0------------------|---------3--------------------------|

G|-0-------2h4--------3p2p0---0h2p0---|---------0--------------------------|

D|-0-------0----------------2-------0-|-2-------2--------------------------|

A|------------------------------------|---------3--------------------------|

E|-3----------------------------------|------------------------------(2)---|

   t

 

___G___________________________________Cadd9_______________________________

" sky...                                   he's just a flash across the... "

e|-3---3-------3----------------------|---------0--------------------------|

B|-3h5-3-------3---0------------------|---------3--------------------------|

G|-0-------2h4--------3p2p0---0h2p0---|---------0--------------------------|

D|-0-------0----------------2-------0-|-2-------2--------------------------|

A|------------------------------------|---------3--------------------------|

E|-3----------------------------------|------------------------------------|

   t

 

Part four: Lost In The Neon World...

 

___G__________________________________C_____G/B___Am7_________

 " sky..... "

e|---------------------------------|-------------------3-3-3-3------|

B|-----0-----0---------------------|-------------------1-1-1-1------|

G|---0-----0-------0-----0---------|-----0-----0-------2-2-2-2------|

D|-4-----5-------0-----0-----------|---2-----0---------2-2-2-2------|

A|-------------4-----5-------0-2---|-3-----2-----0-----0-0-0-0------|

E|-------------------------3-------|--------------------------------|

 

 | 1 - & - 2 - & - 3 - & - 4 - & - | 1 - & - 2 - & - 3 - & - 4 - & -|

 

 

___G__________________________________C_____G/B___Am7_________

 

e|---------------------------------|-------------------3-3-3-3------|

B|-----0-----0---------------------|-------------------1-1-1-1------|

G|---0-----0-------0-----0---------|-----0-----0-------2-2-2-2------|

D|-4-----5-------0-----0-----------|---2-----0---------2-2-2-2------|

A|-------------4-----5-------0-2---|-3-----2-----0-----0-0-0-0------|

E|-------------------------3-------|--------------------------------|

 

 

___G_________________________________C_____G/B___Am____G____________

 

e|---------------------------------|--------------------------------|

B|-----0-----0---------------------|--------------------------------|

G|---0-----0-------0-----0---------|-----0-----0-----2---------0---0-

D|-4-----5-------0-----0-----------|---2-----0-----2-------0---0---0-

A|-------------4-----5-------0-2---|-3-----2-----0-------0----------|

E|-------------------------3-----3-|-------------------3-----1---2--|

 

 | 1 - & - 2 - & - 3 - & - 4 - & - | 1 - & - 2 - & - 3 - & - 4 - & -|

 

 

___G________________________________________________________________

                                                            " This... "

e|---------------------------------|--------------------------------|

B|-----3-3---3-3-------3-3---3-3---|-----3-3---3-3--/8--------------|

G|-----0-0---0-0-------0-0---0-0---|-----0-0---0-0---0--------------|

D|-----0-0---0-0-------0-0---0-0---|-----0-0---0-0---0--------------|

A|-------x---x-x---1/2---2---2-2---|-4/5---5---5-5--/10-------------|

E|-2h3---3---3-3-------------------|--------------------------------|

 

Verse:

 

___Cadd9___________G6/B______________A7sus4__________D______________

" jet age life is  getting worse   I feel I'm half a universe... "

e|-0---0-0-----0---0---0-0-----0---|-0---0-0----0----2---2-2-----2--|

B|-3---3-3-----3---3---3-3-----3---|-3---3-3----3----3---3-3-----3--|

G|-0---0-0-----0---0---0-0-----0---|-0---0-0----0----2---2-2-----2--|

D|-2---2-2-----2---0---0-0-----0---|-2---2-2----2----0---0-0-----0--|

A|-3---3-3-----3---2---2-2-----2---|-0---0-0----0-------------------|

E|---------------------------------|--------------------------------|

 

___G_________________________________C___________G__________________

" away... "

e|---------------------------------|---------------------3-3-3-3----|

B|-----0-----0---------------------|---------------------3-3-3-3----|

G|---0-----0-------0-----0---------|-----0---------------0-0-0-0----|

D|-4-----5-------0-----0-----------|---2-------0---------0-0-0-0----|

A|-------------4-----5-------0-2---|-3-------0-----------x-x-x-x----|

E|-------------------------3-----3-|-------2-----3-------3-3-3-3----|

 

 

___Cadd9___________G6/B______________A7sus4__________D______________

" I left my home some time ago   to fight the creatures of the... "

e|-0---0-0-----0---0---0-0-----0---|-0---0-0----0----2---2-2-----2--|

B|-3---3-3-----3---3---3-3-----3---|-3---3-3----3----3---3-3-----3--|

G|-0---0-0-----0---0---0-0-----0---|-0---0-0----0----2---2-2-----2--|

D|-2---2-2-----2---0---0-0-----0---|-2---2-2----2----0---0-0-----0--|

A|-3---3-3-----3---2---2-2-----2---|-0---0-0----0-------------------|

E|---------------------------------|--------------------------------|

 

 

___G________________________________C____________G____________

" USA... "

e|---------------------------------|-------------------3-3-3-3------|

B|-----0-----0---------------------|-------------------3-3-3-3------|

G|---0-----0-------0-----0---------|-----0-------------0-0-0-0------|

D|-4-----5-------0-----0-----------|---2-------0-------0-0-0-0------|

A|-------------4-----5-------0-2---|-3-------0---------x-x-x-x------|

E|-------------------------3-------|-------2-----3-----3-3-3-3------|

 

 

 

___D_________________________________A_( x07655 )___________________

" You tell me that this neon world is free... "

e|-2-----2-2-----2---2---2-2-------|-----5-----7-----8------9\------|

B|-3-----3-3-----3---3---3-3-------|--------------------------------|

G|-2-----2-2-----2---2---2-2-------|-5/6---6/7---7/8----8/9--\------|

D|-0-----0-0-----0---0---0-0-------|--------------------------------|

A|-----------------------------0---|--------------------------------|

E|---------------------------------|--------------------------------|

 

 

___D_________________________________Cadd9__________________________

" You say this is the place I ought to be... "

e|-2-----2-2-----2---2---2-2-------|-0------------------------------|

B|-3-----3-3-----3---3---3-3-------|-3------------------------------|

G|-2-----2-2-----2---2---2-2-------|-0------------------------------|

D|-0-----0-0-----0---0---0-0-------|-2------------------------------|

A|---------------------------------|-3------------------------------|

E|---------------------------------|--------------------------------|

 

 

___Cadd9___________G/F#______________A7sus4__________D______________

" The time has come for me to go,you say its fast but it's feeling slow... "

e|-------3---3-----------3---3-----|-------3---3-----------2---2----|

B|-------3---3-----------3---3-----|-------3---3-----------3---3----|

G|-------0---0-----------0---0-----|-------0---0---------2-2---2----|

D|-----2---------------0-----------|-----2-----------0-----0---0----|

A|-3---------------2---------------|-0------------------------------|

E|---------------------------------|--------------------------------|

 

 

___G________________________________C______________G________________

" today... "                                             ...neon world! "

e|---------------------------------|-------------------3-3-3-3------|

B|-----0-----0---------------------|-------------------3-3-3-3------|

G|---0-----0-------0-----0---------|-----0-------------0-0-0-0------|

D|-4-----5-------0-----0-----------|---2-------0-------0-0-0-0------|

A|-------------4-----5-------0-2---|-3-------0---------x-x-x-x------|

E|-------------------------3-----3-|-------2-----3-----3-3-3-3------|

 

 

 

Part five: Dance Of The Uncle Sam Humanoids...

 

All instrumental passage...

 

 

Riff 1:   (rhythm chord is  E7#9 = x7678x   or,  0x678x)

 

 

___E7#9_(x7678x)__________________________________________________

 

e|----------------------------------------------------------------|

B|----------------------------------------------------------------|

G|----------------------------------------------------------------|

D|-----------------5~~~----------------------------5~~~-----------|

A|---------5--h7-----------7---5-------7-------7-----------7------|

E|-5--h7----------------------------------------------------------|

 

 | 1   -   &   -   2   -   &   -   3   -   &   -   4   -   &   -  |

 

 

___E7#9____________________________

 

e|----------------------------------------------------------------|

B|----------------------------------------------------------------|

G|----------------------------------------------------------------|

D|-----------------5~~~-------------------------------------------|

A|---------5--h7-----------7---5----------------------------------|

E|-5--h7----------------------------------------------------------|

 

 

 

Repeat riff 1, then:

 

 

Guitar solo 1: 

 

Chord shapes for guitar solo section: it's mostly the same shape moved up and down the fretboard. Note that Dmaj7 and C#m7 have an open E bass.

For Cmaj7, Bbmaj7, and Amaj7 chords use thumb for bass note on E string.

 

 

___Dmaj7/E_____C#m7/E__________Cmaj7_______Bbmaj7______Amaj7______

 

e|-9-----------9---------------7-----------5-----------4----------|

B|-10----------9---------------8-----------6-----------5----------|

G|-11----------9---------------9-----------7-----------6----------|

D|-12----------9---------------10----------8-----------7----------|

A|-x-----------x---------------x-----------x-----------x----------|

E|-0-----------0---------------8-----------6-----------5----------|

 

 

solo begins...

 

 

___Dmaj7/E________________________________________________________

 

e|-9~~~~~~~~~~~~~~~~~~~~~~~~~~~~~~~~~~~~~~~~~~~~~~~~--------------|

B|----------------------------------------------------------------|

G|----------------------------------------------------------------|

D|----------------------------------------------------------------|

A|----------------------------------------------------------------|

E|----------------------------------------------------------------|

 

 | 1   -   &   -   2   -   &   -   3   -   &   -   4   -   &   -  |

 

 

___Dmaj7/E________________________________________________________

 

e|-9-----------10--------/12-------9-----------10---------12------|

B|----------------------------------------------------------------|

G|----------------------------------------------------------------|

D|----------------------------------------------------------------|

A|----------------------------------------------------------------|

E|----------------------------------------------------------------|

 

 

___C#m7/E_________________________________________________________

 

e|-9~~~~~~~~~~~~~-------------------------------------------------|

B|-----------------12--10--9--------------------------------------|

G|----------------------------11---9~~~~~~~~~~~~~~~~~~~~~~~\------|

D|----------------------------------------------------------------|

A|----------------------------------------------------------------|

E|----------------------------------------------------------------|

 

 

___C#m7/E_________________________________________________________

 

e|----------------------------------------------------------------|

B|----------------------------------------------------------------|

G|-------------9---11-h13-p11-p9----------------------------------|

D|/9-------11----------------------11-p9--p7----------------------|

A|---------------------------------------------9--p7--------------|

E|----------------------------------------------------------------|

 

 

___Dmaj7/E________________________________________________________

 

e|-9-----------10----------12------9~~~~~~~~~~~~~~----------------|

B|-------------------------------------------------12~~~~~~~~~~~~-|

G|----------------------------------------------------------------|

D|----------------------------------------------------------------|

A|----------------------------------------------------------------|

E|----------------------------------------------------------------|

 

 

___Dmaj7/E________________________________________________________

 

e|---------9---10--12----9---10----12~~~~~~10~~~~~~9h10p9---------|

B|---------------------------------------------------------12-----|

G|----------------------------------------------------------------|

D|----------------------------------------------------------------|

A|----------------------------------------------------------------|

E|----------------------------------------------------------------|

 

 

___C#m7/E_________________________________________________________

 

e|----------------------------------------------------------------|

B|-10~~~~~~~~~~~~~~9~~~~~~~~~~~~~~~~~~~~~~~~~~~~~~~~~~~~~~~~~~~~~~|

G|----------------------------------------------------------------|

D|----------------------------------------------------------------|

A|----------------------------------------------------------------|

E|----------------------------------------------------------------|

 

 

___C#m7/E_________________________________________________________

 

e|----------------------------------------------------------------|

B|(9)~~~~~~~~~~~~~~~~~~~~~~~~~~~~~~~~~~~~~~~~~~~~~~~--------------|

G|----------------------------------------------------------------|

D|----------------------------------------------------------------|

A|----------------------------------------------------------------|

E|----------------------------------------------------------------|

 

 

___Cmaj7__________________________________________________________

 

e|----------------------------------------------------------------|

B|-12~~~~~~~~~~~~~~~~~~~~------12--13~~~~~~~~~~~~~~~~~~~~--12--13-|

G|-12~~~~~~~~~~~~~~~~~~~~--14-------------------------------------|

D|----------------------------------------------------------------|

A|----------------------------------------------------------------|

E|----------------------------------------------------------------|

 

 

___Cmaj7__________________________________________________________

 

e|-----------------12----------12--13------12--13--15~~~~~~~~~~~~-|

B|-15------13--15----------15-------------------------------------|

G|----------------------------------------------------------------|

D|----------------------------------------------------------------|

A|----------------------------------------------------------------|

E|----------------------------------------------------------------|

 

 

___Bbmaj7_________________________________________________________

 

e|-13------12h13p12------------------------------------12-h13-h15-|

B|-----------------15~~~~~~~~~~~~~~~~~~~~~~--------15-------------|

G|----------------------------------------------------------------|

D|----------------------------------------------------------------|

A|----------------------------------------------------------------|

E|----------------------------------------------------------------|

 

 

___Bbmaj7_________________________________________________________

 

e|-13p12-------12-------------------------------------------------|

B|---------15------15~~~~~~~~~~~~~~~~~~~~~~~~~~~~~~--------10--10-|

G|----------------------------------------------------------------|

D|----------------------------------------------------------------|

A|----------------------------------------------------------------|

E|----------------------------------------------------------------|

 

 

___Amaj7__________________________________________________________

 

e|----------------------------------------------------------------|

B|-10------------------------------------------------------10--10-|

G|-----9---9---9---9----------------------------------------------|

D|---------------------7---7---7---7------------------------------|

A|-------------------------------------7---7---7---7--------------|

E|----------------------------------------------------------------|

 

 | 1   -   &   -   2   -   &   -   3   -   &   -   4   -   &   -  |

 

 

___Amaj7_(5x7654)_________________________________________________

 

e|----------------------------------------------------------------|

B|-10-------------------------------------------------------------|

G|-----9---9---9---9----------------------------------------------|

D|---------------------7---7---7---7------------------------------|

A|-------------------------------------7---7---7---7\-------------|

E|----------------------------------------------------------------|

Riff 1: 

 

There are three guitars on the original album version.  

The first guitar plays riff 1 at the 5th fret, the second guitar plays it an octave higher at the 12th fret.  

When Bill played this live he alternated between the two.  

There is also a clean guitar playing some funky jazz chords that I have tried to tab.

 

 

 

___E7#9_(x7678x)__________________________________________________

 

e|----------------------------------------------------------------|

B|----------------------------------------------------------------|

G|----------------------------------------------------------------|

D|-----------------5~~~----------------------------5~~~-----------|

A|---------5--h7-----------7---5-------7-------7-----------7------|

E|-5--h7----------------------------------------------------------|

 

 

___E7#9________________________________E7#9_______________________

 

e|-------------------------------------12--x---12--x---12--x------|

B|-------------------------------------12--x---12--x---12--x------|

G|-------------------------------------12--x---12--x---12--x------|

D|-----------------5~~~----------------12--x---12--x---12--x------|

A|---------5--h7-----------7---5-------11--x---11--x---11--x------|

E|-5--h7-------------------------------12--x---12--x---12--x------|

 

 

___E7#9___________________________________________________________

 

e|----------------------------------------------------------------|

B|----------------------------------------------------------------|

G|-----------------12~~~---------------------------12~~~----------|

D|---------12-h14----------14--12------14------14----------14-----|

A|-12-h14---------------------------------------------------------|

E|----------------------------------------------------------------|

 

 

___E7#9____________________________________Eb9____________________

 

e|-----------------------------------------6----------------------|

B|-----------------------------------------6----------------------|

G|-----------------12~~~-------------------6----------------------|

D|---------12-h14----------14--12----------5----------------------|

A|-12-h14----------------------------------6----------------------|

E|----------------------------------------------------------------|

 

 

___E7#9___________________________________________________________

 

e|----------------------------------------------------------------|

B|----------------------------------------------------------------|

G|----------------------------------------------------------------|

D|-----------------5~~~----------------------------5~~~-----------|

A|---------5--h7-----------7---5-------7-------7-----------7------|

E|-5--h7----------------------------------------------------------|

 

 

___E7#9________________________________E9______________E9_________

 

e|-------------------------------------7---------------7----------|

B|-------------------------------------7---------------7----------|

G|-------------------------------------7---------------7----------|

D|-----------------5~~~----------------6---------------6----------|

A|---------5--h7-----------7---5-------7---------------7----------|

E|-5--h7----------------------------------------------------------|

 

 

___E7#9___________________________________________________________

 

e|----------------------------------------------------------------|

B|----------------------------------------------------------------|

G|----------------------------------------------------------------|

D|-----------------5~~~----------------------------5~~~-----------|

A|---------5--h7-----------7---5-------7-------7-----------7------|

E|-5--h7----------------------------------------------------------|

 

 

___E7#9________________________________E9_________________________

 

e|-------------------------------------7\-------------------------|

B|-------------------------------------7\-------------------------|

G|-------------------------------------7\-------------------------|

D|-----------------5~~~----------------6\-------------------------|

A|---------5--h7-----------7---5-------7\-------------------------|

E|-5--h7----------------------------------------------------------|

 

 

 

Guitar solo 2: (same rhythm chords as guitar solo 1...)

 

 

 

___Dmaj7/E________________________________________________________

 

e|-9~~~~~~~~~~~~~~~~~~~~~~~~~~~~~~~~~~~~~~~~~~~~~~~~\-------------|

B|----------------------------------------------------------------|

G|----------------------------------------------------------------|

D|----------------------------------------------------------------|

A|----------------------------------------------------------------|

E|----------------------------------------------------------------|

 

 

___Dmaj7/E________________________________________________________

 

e|-9-----------10--------/12-------9-----------10---------12------|

B|----------------------------------------------------------------|

G|----------------------------------------------------------------|

D|----------------------------------------------------------------|

A|----------------------------------------------------------------|

E|----------------------------------------------------------------|

 

 

___C#m7/E_________________________________________________________

 

e|-9--------------------------------------------------------------|

B|-----------------12--10--9--------------------------------------|

G|----------------------------11---9~~~~~~~~~~~~~~~~~~~~~~~\------|

D|----------------------------------------------------------------|

A|----------------------------------------------------------------|

E|----------------------------------------------------------------|

 

 

___C#m7/E_________________________________________________________

 

e|----------------------------------------------------------------|

B|----------------------------------------------------------------|

G|-------------9---11-h13-p11-p9----------------------------------|

D|/9-------11----------------------11-p9--p7----------------------|

A|---------------------------------------------9--p7--------------|

E|----------------------------------------------------------------|

 

 

___Dmaj7/E________________________________________________________

 

e|-9---------9h10---------/12------9~~~~~~~~~~~~~~----------------|

B|-------------------------------------------------12~~~~~~~~~~~~-|

G|----------------------------------------------------------------|

D|----------------------------------------------------------------|

A|----------------------------------------------------------------|

E|----------------------------------------------------------------|

 

 

___Dmaj7/E________________________________________________________

 

e|---------9---10-/12----10---12--/14--12--14~~~~~~~~~~~~~~~14/17-|

B|----------------------------------------------------------------|

G|----------------------------------------------------------------|

D|----------------------------------------------------------------|

A|----------------------------------------------------------------|

E|----------------------------------------------------------------|

 

 

___C#m7/E_________________________________________________________

 

e|-16~~~~~~----14-------------------------------------------------|

B|---------17----------17--15--14---------------------------------|

G|---------------------------------16~~~~~~~~~~~~~~~~~~~~~~~~~~~~-|

D|----------------------------------------------------------------|

A|----------------------------------------------------------------|

E|----------------------------------------------------------------|

 

 

___C#m7/E_________________________________________________________

 

e|-17b19~~~~~~r17b19~~~~~~r17b19~~~~~~r17b19\---------------------|

B|----------------------------------------------------------------|

G|----------------------------------------------------------------|

D|----------------------------------------------------------------|

A|----------------------------------------------------------------|

E|----------------------------------------------------------------|

 

 

___Cmaj7__________________________________________________________

 

e|----------------------------------------------------------------|

B|-12~~~~~~~~~~~~~~~~~~~~------12--13~~~~~~~~~~~~~~~~~~~~--12--13-|

G|-12~~~~~~~~~~~~~~~~~~~~--14-------------------------------------|

D|----------------------------------------------------------------|

A|----------------------------------------------------------------|

E|----------------------------------------------------------------|

 

 

___Cmaj7__________________________________________________________

 

e|-----------------12----------12--13------12--13--15~~~~~~~~~~~~-|

B|-15------13--15----------15-------------------------------------|

G|----------------------------------------------------------------|

D|----------------------------------------------------------------|

A|----------------------------------------------------------------|

E|----------------------------------------------------------------|

 

 

___Bbmaj7_________________________________________________________

 

e|-13------12h13p12------------------------------------12-h13-h15-|

B|-----------------15~~~~~~~~~~~~~~~~~~~~~~--------15-------------|

G|----------------------------------------------------------------|

D|----------------------------------------------------------------|

A|----------------------------------------------------------------|

E|----------------------------------------------------------------|

 

 

___Bbmaj7_________________________________________________________

 

e|-13p12-------12-------------------------------------------------|

B|---------15------15~~~~~~~~~~~~~~~~~~~~~~~~~~~~~~--------10--10-|

G|----------------------------------------------------------------|

D|----------------------------------------------------------------|

A|----------------------------------------------------------------|

E|----------------------------------------------------------------|

 

 

___Amaj7__________________________________________________________

 

e|----------------------------------------------------------------|

B|-10------------------------------------------------------10--10-|

G|-----9---9---9---9\---------------------------------------------|

D|---------------------7---7---7---7------------------------------|

A|-------------------------------------7---7---7---7--------------|

E|----------------------------------------------------------------|

 

 

___Amaj7__________________________________________________________

 

e|----------------------------------------------------------------|

B|-10-------------------------------------------------------------|

G|-----9---9---9---9\---------------------------------------------|

D|---------------------7---7---7---7------------------------------|

A|-------------------------------------7---7---7---7\-------------|

E|----------------------------------------------------------------|

Riff 1:

 

 

___E7#9_(x7678x)__________________________________________________

 

e|----------------------------------------------------------------|

B|----------------------------------------------------------------|

G|----------------------------------------------------------------|

D|-----------------5~~~----------------------------5~~~-----------|

A|---------5--h7-----------7---5-------7------h7-----------7------|

E|-5--h7----------------------------------------------------------|

 

 | 1   -   &   -   2   -   &   -   3   -   &   -   4   -   &   -  |

 

 

___E7#9________________________

 

e|----------------------------------------------------------------|

B|----------------------------------------------------------------|

G|----------------------------------------------------------------|

D|-----------------5~~~-------------------------------------------|

A|---------5--h7-----------7---5----------------------------------|

E|-5--h7----------------------------------------------------------|

 

 

___E7#9___________________________________________________________

 

e|----------------------------------------------------------------|

B|----------------------------------------------------------------|

G|-----------------12~~~---------------------------12~~~----------|

D|---------12-h14----------14--12------14------14----------14-----|

A|-12-h14---------------------------------------------------------|

E|----------------------------------------------------------------|

 

 

___E7#9________________________

 

e|----------------------------------------------------------------|

B|----------------------------------------------------------------|

G|-----------------12~~~------------------------------------------|

D|---------12-h14----------14--12---------------------------------|

A|-12-h14---------------------------------------------------------|

E|----------------------------------------------------------------|

 

 

___E7#9___________________________________________________________

 

e|----------------------------------------------------------------|

B|----------------------------------------------------------------|

G|----------------------------------------------------------------|

D|-----------------5~~~----------------------------5~~~-----------|

A|---------5--h7-----------7---5-------7-------7-----------7------|

E|-5--h7----------------------------------------------------------|

 

 

___E7#9________________________

 

e|----------------------------------------------------------------|

B|----------------------------------------(15~~~~~~~~~~~~~~~~~~~)-|

G|----------------------------------------(14b16~~~~~~~~~~~~~~~~)-|

D|-----------------5~~~-------------------------------------------|

A|---------5--h7-----------7---5----------------------------------|

E|-5--h7----------------------------------------------------------|

 

 

___E7#9___________________________________________________________

 

e|----------------------------------------------------------------|

B|----------------------------------------------------------------|

G|-----------------12~~~---------------------------12~~~----------|

D|---------12-h14----------14--12------14------14----------14-----|

A|-12-h14---------------------------------------------------------|

E|----------------------------------------------------------------|

 

 

___E7#9________________________

 

e|----------------------------------------------------------------|

B|----------------------------------------------------------------|

G|-----------------12~~~------------------------------------------|

D|---------12-h14----------14--12---------------------------------|

A|-12-h14---------------------------------------------------------|

E|-------------------------------------------------15\------------|

 

 

 

Guitar solo 3:

 

 

___G_(320033)_____________________________________________________

 

e|----------------------------------------------------------------|

B|----------------------------------------------------------------|

G|----------------------------------------------------------------|

D|-------------------------------------------------5-h7-p5--------|

A|-------------------------5~~~~~~~~~~~----5--h7-----------7------|

E|\3--------------/7----------------------------------------------|

 

 | 1   -   &   -   2   -   &   -   3   -   &   -   4   -   &   -  |

 

 

___D_(xx0232)_____________________________________________________

 

e|----------------------------------------------------------------|

B|-----------------------------------------8-------7-h8-p7--------|

G|-----------------7-------9~~~~~~~------------------------9--h11-|

D|/9--------------------------------------------------------------|

A|----------------------------------------------------------------|

E|----------------------------------------------------------------|

 

 

___G_(320033)______________________C_(x32010)_____________________

 

e|----------------------------------------------------------------|

B|----------------------------------------------------------------|

G|-7--h9-------7--\5-------5--\4-------4--p0--h2--p0--------------|

D|---------9-----------7-----------5-------------------2--p0------|

A|-------------------------------------------------------------3--|

E|----------------------------------------------------------------|

 

 

___G_(320033)______________________

 

e|----------------------------------------------------------------|

B|----------------------------------------------------------------|

G|----------------------------------------------------------17b19~|

D|----------------------------------------------------------------|

A|-2--h3---2--h3---2--h3---2h3p2p0--------------------------------|

E|---------------------------------3------------------------------|

 

 

 

___G______________________________________________________________

 

e|-----15---------------------------------------------------------|

B|-15------18------15----------17---------------------------------|

G|~------------17^-15--15-h16~~~~pb16~r14-b16~r14~~----14---------|

D|-------------------------------------------------17------17-----|

A|----------------------------------------------------------------|

E|----------------------------------------------------------------|

 

 

___D______________________________________________________________

 

e|-------------------------------------------------15---18---17---|

B|-----------------------------------------15h17h18---------------|

G|---------------------14-15p14----14h16h18-----------------------|

D|pb15r14----14-h15h17----------17--------------------------------|

A|--------17------------------------------------------------------|

E|----------------------------------------------------------------|

 

 

___G_______________________________C______________________________

 

e|-15----15----------------15-------------------------------------|

B|----17---17b19~~~~~~~~~~~----18-p15------15---------17----------|

G|-------------------------------------17--15--15-h16~~~-14b15r14-|

D|----------------------------------------------------------------|

A|----------------------------------------------------------------|

E|----------------------------------------------------------------|

 

 

___G_______________________________

 

e|----------------------------------------------------------------|

B|----------------------------------------------------------------|

G|pb15r14------14-------------------------------------------------|

D|---------17------17--15--14-------------------------------------|

A|-----------------------------17-15-14---------------------------|

E|----------------------------------------------------------------|

 

 

 

___G______________________________________________________________

 

e|----------------------------------------------------------------|

B|---------0-----------0------------------------------------------|

G|-----0-----------0---------------0-----------0------------------|

D|-4-----------5---------------0-----------0----------------------|

A|-------------------------4-----------5---------------0--h2------|

E|-------------------------------------------------3--------------|

 

 

___C___________G/B_____________________Am7__________

 

e|-------------------------------------3---3---3---3--------------|

B|-------------------------------------1---1---1---1--------------|

G|---------0-----------0---------------2---2---2---2--------------|

D|-----2-----------0-------------------2---2---2---2--------------|

A|-3-----------2-----------0-----------0---0---0---0--------------|

E|----------------------------------------------------------------|

 

 

___G______________________________________________________________

 

e|----------------------------------------------------------------|

B|---------0-----------0------------------------------------------|

G|-----0-----------0---------------0-----------0------------------|

D|-4-----------5---------------0-----------0----------------------|

A|-------------------------4-----------5---------------0--h2------|

E|-------------------------------------------------3--------------|

 

 

___C___________G/B_____________________Am7__________

 

e|-------------------------------------3---3---3---3--------------|

B|-------------------------------------1---1---1---1--------------|

G|---------0-----------0---------------2---2---2---2--------------|

D|-----2-----------0-------------------2---2---2---2--------------|

A|-3-----------2-----------0-----------0---0---0---0--------------|

E|----------------------------------------------------------------|

 

 

___G______________________________________________________________

 

e|----------------------------------------------------------------|

B|---------0-----------0------------------------------------------|

G|-----0-----------0---------------0-----------0------------------|

D|-4-----------5---------------0-----------0----------------------|

A|-------------------------4-----------5---------------0--h2------|

E|-------------------------------------------------3--------------|

 

 

___C___________G/B_________Am__________G__________________________

 

e|----------------------------------------------------------------|

B|----------------------------------------------------------------|

G|---------0-----------0-----------2-------------------0-------0--|

D|-----2-----------0-----------2---------------0-------0-------0--|

A|-3-----------2-----------0---------------0-----------x-------x--|

E|-------------------------------------3-----------1-------2------|

 

 

___G______________________________________________________________

 

e|---------3---3-------3---3---------------3---3-------3---3------|

B|---------3---3-------3---3---------------3---3-------3---3------|

G|---------0---0-------0---0---------------0---0-------0---0------|

D|---------0---0-------0---0---------------0---0-------0---0------|

A|---------x---x-------x---x---------------x---x-------x---x------|

E|-2--h3-------3-----------3-------2--h3-------3-----------3------|

 

 

___G______________________________________________________________

 

e|---------3---3-------3---3-------3------------------------------|

B|---------3---3-------3---3-------3------------------------------|

G|---------0---0-------0---0-------0------------------------------|

D|---------0---0-------0---0-------0------------------------------|

A|---------x---x-------x---x-------x------------------------------|

E|-2--h3-------3-----------3-------3------------------------------|

 

 

___G______________________________________________________________

 

e|----------------------------------------------------------------|

B|---------0-----------0------------------------------------------|

G|-----0-----------0---------------0-----------0------------------|

D|-4-----------5---------------0-----------0----------------------|

A|-------------------------4-----------5---------------0--h2------|

E|-------------------------------------------------3--------------|

 

 

___C___________G/B_________Am__________G__________________________

 

e|----------------------------------------------------------------|

B|----------------------------------------------------------------|

G|---------0-----------0-----------2-------------------0-------0--|

D|-----2-----------0-----------2---------------0-------0-------0--|

A|-3-----------2-----------0---------------0-----------x-------x--|

E|-------------------------------------3-----------1-------2------|

 

 

 

Part six: Modern Music Reprise... (Similar chords to part one...)

 

 

 

___G_(3x0033)_______________________Cadd9_(x3x033)__________________

           " Modern music   on  my    radio... "

 

 

___G_(3x0033)_______________________Cmaj7_(x32000)__________________

       " another station       and   another     show... "

 

 

___D________________________________Em__________Em7sus4_____________

      " If only I    could let my   feel - ings flow... "

e|-2-----2-2---2-----2-2---2---2--|-0----0--0--+12+~~~~~~~~~~~~~~~~~|

B|-3-----3-3---3-----3-3---3---3--|-0----0--0--+12+~~~~~~~~~~~~~~~~~|

G|-2-----2-2---2-----2-2---2---2--|-0----0--0--+12+~~~~~~~~~~~~~~~~~|

D|-0-----0-0---0-----0-0---0---0--|-2----2--x--+12+~~~~~~~~~~~~~~~~~|

A|--------------------------------|-2----2--x--+12+~~~~~~~~~~~~~~~~~|

E|--------------------------------|-0----0--0--+12+~~~~~~~~~~~~~~~~~|

                                           (+harmonics+)

 

 

 

___Cmaj7_(x32000)____________________D_(xx0232)__________________________

 (lead guitar)

e|-----------------------------------------------------------------------|

B|--------15--12~~~~~~~\---------15--12~~~~----12------------------------|

G|------------------------------------------------14b16r14-12----14b16~~~|

D|-12h14-------------------12h14------------------------------14---------|

A|-----------------------------------------------------------------------|

E|-----------------------------------------------------------------------|

 

 

 

___G________________________________Cadd9__________________________

    " When you're lonely and you're far away... "

 

 

___G________________________________Cmaj7__________________________

        " when those blue guitars begin to play... "

 

 

___D________________________________Em__________Em7sus4_____________

 " please don't let them steal your heart     away... "

e|-2-----2-2---2-----2-2---2---2--|-0----0--0--+12+~~~~~~~~~~~~~~~~~|

B|-3-----3-3---3-----3-3---3---3--|-0----0--0--+12+~~~~~~~~~~~~~~~~~|

G|-2-----2-2---2-----2-2---2---2--|-0----0--0--+12+~~~~~~~~~~~~~~~~~|

D|-0-----0-0---0-----0-0---0---0--|-2----2--x--+12+~~~~~~~~~~~~~~~~~|

A|--------------------------------|-2----2--x--+12+~~~~~~~~~~~~~~~~~|

E|--------------------------------|-0----0--0--+12+~~~~~~~~~~~~~~~~~|

                                             ( +harmonics+ )

 

 

___Cmaj7_(x32000)____________________D_(xx0232)__________________________

m(lead guitar)

e|-----------------------------------------------------------------------|

B|--------15--12~~~~~~~\---------15--12~~~~------------------------------|

G|-----------------------------------------------10^~~~~~~~9-p7-h9~~~~~--|

D|-12h14-------------------12h14-----------------------------------------|

A|-----------------------------------------------------------------------|

E|-----------------------------------------------------------------------|

 

 

 

 

___E5__________Bsus4/E_____E5__Aadd9/E______E5_____________________

" from me...                      please don't let them steal your... "  

e|---------0---0-----------0---0--|---------0----------------------|

B|---------0---0-----------0---0--|---------0----------------------|

G|---------9---8-----------x---6--|---------x----------------------|

D|---------9---9-----------x---7--|---------x-------2---2---2------|

A|---------7---9-----------x---7--|---------x---2h4-----------4p2h4-

E|-0-------0---0---0-------0---0--|-0-------0----------------------|

 

 

 

___E5__________Bsus4/E_____E5__Aadd9/E______E5_____________________

 " heart away...                                             from... "

e|---------0---0-----------0---0--|---------0----------------------|

B|---------0---0-----------0---0--|---------0----------------------|

G|---------9---8-----------x---6--|---------x----------------------|

D|---------9---9-----------x---7--|---------x-------5/6-----2------|

A|---------7---9-----------x---7--|---------x-----------2h4---4p2h4-

E|-0-------0---0---0-------0---0--|-0-------0----------------------|

 

 

 

___E5__________Bsus4/E_____E5__Aadd9/E______E5_____________________

 " me...                         please don't let them steal your... "

e|---------0---0-----------0---0--|---------0----------------------|

B|---------0---0-----------0---0--|---------0----------------------|

G|---------9---8-----------x---6--|---------x----------------------|

D|---------9---9-----------x---7--|---------x-------2-------2-----2-

A|---------7---9-----------x---7--|---------x---2h4---4------------|

E|-0-------0---0---0-------0---0--|-0-------0-----------3h4---3h4--|

 

 

 

___E5__________Bsus4/E_____E5__Aadd9/E______E5_____________________

 " heart away... "

e|---------0---0-----------0---0--|---------0----------------------|

B|---------0---0-----------0---0--|---------0----------------------|

G|---------9---8-----------x---6--|---------x----------------------|

D|---------9---9-----------x---7--|---------x-------2--------------|

A|---------7---9-----------x---7--|---------x---------4---2--------|

E|-0-------0---0---0-------0---0--|-0-------0-----------------4-2--|

 

 

 

Ending:

 

 

___E________________________________A________________________Bb_B__

 " ooh... "

e|-----0-0-0---0-0-0---0-0-0------|-0---0-0-0---0-0-0--------------|

B|-----0-0-0---0-0-0---0-0-0------|-0---0-0-0---0-0-0--------------|

G|-----1-1-1---1-1-1---1-1-1------|-6---6-6-6---6-6-6-------6/7/8--|

D|-----2-2-2---2-2-2---2-2-2------|-7---7-7-7---7-7-7-------7/8/9--|

A|-----2-2-2---2-2-2---2-2-2------|-7---7-7-7---7-7-7-------7/8/9--|

E|-0---0-0-0---0-0-0---0-0-0---0--|-0---0-0-0---0-0-0---0----------|

 

 | 1 - & - 2 - & - 3 - & - 4 - & -| 1 - & - 2 - & - 3 - & - 4 - & -|

 

 

 

___E________________________________A________________________Bb_B__

 " ooh... "

e|-----0-0-0---0-0-0---0-0-0------|-0---0-0-0---0-0-0--------------|

B|-----0-0-0---0-0-0---0-0-0------|-0---0-0-0---0-0-0--------------|

G|-----1-1-1---1-1-1---1-1-1------|-6---6-6-6---6-6-6-------6/7/8--|

D|-----2-2-2---2-2-2---2-2-2------|-7---7-7-7---7-7-7-------7/8/9--|

A|-----2-2-2---2-2-2---2-2-2------|-7---7-7-7---7-7-7-------7/8/9--|

E|-0---0-0-0---0-0-0---0-0-0---0--|-0---0-0-0---0-0-0---0----------|

 

 

 

Repeat until...

 

 

___E________________________________A______________________________

 

e|-----0-0-0---0-0-0---0-0-0------|-0---0-0-0----------------------|

B|-----0-0-0---0-0-0---0-0-0------|-0---0-0-0----------------------|

G|-----1-1-1---1-1-1---1-1-1------|-6---6-6-6----------------------|

D|-----2-2-2---2-2-2---2-2-2------|-7---7-7-7-------2--------------|

A|-----2-2-2---2-2-2---2-2-2------|-7---7-7-7---------4---2--------|

E|-0---0-0-0---0-0-0---0-0-0---0--|-0---0-0-0-----------------4-2--|

 

 | 1 - & - 2 - & - 3 - & - 4 - & -| 1 - & - 2 - & - 3 - & - 4 - & -|

 

 

___E_______________________________________________________________

 

e|-0------------------------------|--------------------------------|

B|-0------------------------------|--------------------------------|

G|-1------------------------------|--------------------------------|

D|-2------------------------------|--------------------------------|

A|-2------------------------------|--------------------------------|

E|-0------------------------------|--------------------------------|

 

 

 

Words & Music by Bill Nelson

© Bill Nelson 2019

  • Facebook Social Icon
  • Twitter Social Icon