Mill Street Junction

------------------------------------------------------------------------

Mill Street Junction - Be Bop Deluxe

------------------------------------------------------------------------

 

Tabbed by twilightcapers

 

This is the live verion from Live! In The Air Age complete with guitar solos.

 

Tuning: EADGBe

| /  slide up

| \  slide down

| s  slur - very rapid slide, sounds like one note

| h  hammer-on

| p  pull-off

| ~  vibrato or sustain

| +  harmonic

| x  Mute note

| PM palm mute

|(13) ghost note

| <  pick scrape

| b  bend

| r  relax bend

| pb pre-bend

| ^  quarter tone bend

|(x7678x) chord shape

| t = thumb (fretting hand)

| i = index finger (fretting hand)

| m = middle finger (fretting hand)

| r = ring finger (fretting hand)

| p = pinky  (fretting hand)

 

Intro:

 

___A5_________________________________________________________A7sus4_

     (palm mute)

e|--------------------------------|-----------------------------3--|

B|--------------------------------|-----------------------------3--|

G|--------------------------------|-----------------------------2--|

D|-2---2---2---2---2---2---2---2--|-2---2---2---2---2---2---2---2--|

A|-0---0---0---0---0---0---0---0--|-0---0---0---0---0---0---0---0--|

E|--------------------------------|--------------------------------|

 

 | 1 - & - 2 - & - 3 - & - 4 - & -| 1 - & - 2 - & - 3 - & - 4 - & -|

 

___A7su4___________________________________________________________

(let chord ring, palm mute bass notes)

e|-3---------------------------3--|-3------------------------------|

B|-3---------------------------3--|-3------------------------------|

G|-2---2---2---2---2---2---2---2--|-2---2---2---2---2---2---2---2--|

D|-2---2---2---2---2---2---2---2--|-2---2---2---2---2---2---2---2--|

A|-0---0---0---0---0---0---0---0--|-0---0---0---0---0---0---0---0--|

E|--------------------------------|--------------------------------|

 

 

Verse:

 

___Bm__________________________F#m______________F#m11______________

             "Be - hind   the  gas  -   works       af  -   ter..."

e|-2---2-------2---2---2-------2--|-2---2-------0------------------|

B|-3---3-------3---3---3-------2--|-2---2-------0------------------|

G|-4---4-------4---4---4-------2--|-2---2-------2------------------|

D|-4---4-------4---4---4-------4--|-4---4-------4------------------|

A|-2---2-------2---2---2-------4--|-4---4-------4------------------|

E|-----------------------------2--|-2---2-------2------------------|

 

 | 1 - & - 2 - & - 3 - & - 4 - & -| 1 - & - 2 - & - 3 - & - 4 - & -|

 

 

___A_______D/A_____A___________A____________D/A_____A______________

 "Midnight..." 

e|---------------------x---x------|--------------------------------|

B|-2-------3-------2---x---x---2--|---------3-------2--------------|

G|-2-------2-------2---x---x---2--|---------2-------2--------------|

D|-2-------4-------2---x---x---2--|---------4-------2--------------|

A|-0-------0-------0---x---x---0--|-----0---0-------0--------------|

E|---------------------x---x------|--------------------------------|

 

 | 1 - & - 2 - & - 3 - & - 4 - & -| 1 - & - 2 - & - 3 - & - 4 - & -|

 

 

Repeat verse until...

 

___G________________________________G/F#___________________________

              "She dreams  she hears            the gasworks    band..."

e|-3------------------------------|-----------------3--------------|

B|-3------------------------------|-----------------------3--------|

G|-0------------------------------|---------0-------------------0--|

D|-0------------------------------|--------------------------------|

A|-x------------------------------|--------------------------------|

E|-3------------------------------|-2------------------------------|

 

___Em______________________________________________________________

 

e|--------------------------------|--------------------------------|

B|--------------------------------|--------------------------------|

G|--------------------------------|--------------------------------|

D|-2---2---2---2---2---2---2---2--|-2---2---2---2---2---2---2---2--|

A|-2---2---2---2---2---2---2---2--|-2---2---2---2---2---2---2---2--|

E|-0---0---0---0---0---0---0---0--|-0---0---0---0---0---0---0---0--|

 

 

 

___Bm__________________________F#m______________F#m11______________

          "Somewhere   cathedral bells  are screaming..."

e|-2---2-------2---2---2-------2--|-2---2-------0------------------|

B|-3---3-------3---3---3-------2--|-2---2-------0------------------|

G|-4---4-------4---4---4-------2--|-2---2-------2------------------|

D|-4---4-------4---4---4-------4--|-4---4-------4------------------|

A|-2---2-------2---2---2-------4--|-4---4-------4------------------|

E|-----------------------------2--|-2---2-------2------------------|

 

 

___A_______D/A_____A___________A____________D/A_____A______________

 

e|---------------------x---x------|--------------------------------|

B|-2-------3-------2---x---x---2--|---------3-------2--------------|

G|-2-------2-------2---x---x---2--|---------2-------2--------------|

D|-2-------4-------2---x---x---2--|---------4-------2--------------|

A|-0-------0-------0---x---x---0--|-----0---0-------0--------------|

E|---------------------x---x------|--------------------------------|

 

"As someones dog answers a call

And in the back row of 'The Empire'..."

___G________________________________G/F#___________________________

             " The phantom     of       the      Bin -  go ..."

e|-3------------------------------|-----------------3--------------|

B|-3------------------------------|-----------------------3--------|

G|-0------------------------------|---------0-------------------0--|

D|-0------------------------------|--------------------------------|

A|-x------------------------------|--------------------------------|

E|-3------------------------------|-2------------------------------|

 

___Em7_____________________________________________________________

 " Hall... "

e|---------------------0----------|-----0--------------------------|

B|-----------------0-------0---3--|---------0----------------------|

G|-------------0------------------|--------------------------------|

D|---------2----------------------|-----------------------------0--|

A|--------------------------------|--------------------------------|

E|-0------------------------------|-----------------0-------2------|

 

 | 1 - & - 2 - & - 3 - & - 4 - & -| 1 - & - 2 - & - 3 - & - 4 - & -|

 

 

___G________________________________G/F#___________________________

             " The phantom     of       the      bin -  go ..."

e|-3------------------------------|-----------------3--------------|

B|-3------------------------------|-----------------3--------------|

G|-0------------------------------|-------------0------------------|

D|-0------------------------------|---------0----------------------|

A|-x------------------------------|--------------------------------|

E|-3------------------------------|-2------------------------------|

 

 

___Em7_____________________________________________________________

 " Hall... "

e|---------------------0----------|-----0--------------------------|

B|-----------------0-------0---3--|---------0----------------------|

G|-------------0------------------|-------------------------0------|

D|---------2----------------------|---------------------0----------|

A|--------------------------------|-----------------2--------------|

E|-0------------------------------|--------------------------------|

 

 

___C________________________________G______________________________

 

e|--------------------------------|-----------------3--------------|

B|---------1----------------------|-----------------------3--------|

G|-0---------------0--------------|-0-------0-------------------0--|

D|-x-----------------------2------|-0------------------------------|

A|-3------------------------------|-x------------------------------|

E|--------------------------------|-3------------------------------|

 

 | 1 - & - 2 - & - 3 - & - 4 - & -| 1 - & - 2 - & - 3 - & - 4 - & -|

 

 

___Dsus4_____________________________D______________Dsus2__________

 

e|-----------------3--------------|--2--------------0--------------|

B|-------------3---------3--------|-------3---------------3--------|

G|--------2--------------------2--|-------------2---------------2--|

D|-0------------------------------|--------------------------------|

A|--------------------------------|--------------------------------|

E|--------------------------------|--------------------------------|

 

___Am________________________________C/G___________________________

 

e|--------------------------------|--------------------------------|

B|-----------------1--------------|------------------1-------------|

G|---------------------0----------|---------------------0----------|

D|---------2-------------------2--|---------2----------------------|

A|-0------------------------------|--------------------------------|

E|--------------------------------|-3------------------------------|

 

___F_________________________________________________

(01:20)

e|--------------------------------|--------------------------------|

B|--------------------------------|--------------------------------|

G|--------------------------------|--------------------------------|

D|--------------------------------|-3---3---3---3---3-------------7-

A|-3---3---3---3---3---3---3---3--|-3---3---3---3---3---------7h9--|

E|-1---1---1---1---1---1---1---1--|-1---1---1---1---1------/9------|

(______________PM_________________)

 

 

Solo 1.

 

____Bm______________________________F#m_____________F#m11__________

(01:23)

e|--------------------------------|--10--------10h12h14p12h14/17-16--

B|------------------10p9-----10h12h14--10h12h14--------------------17~

G|--------------9h11----11h13--------------------------------------|

D|-9p7---7h9/11-------------------|--------------------------------|

A|-----9--------------------------|--------------------------------|

E|--------------------------------|--------------------------------|

 

 

___D_______D/A_____A___________D____________D/A_____A______________

 

e|---------------------14------------------------------------------|

B|~~--14h17p14---14--14---17-14--14--------------------------------|

G|------------16^--16^---------16--17p16p14--16p14-----------------|

D|--------------------------------|--------16-----16p14h16\1/16----|

A|--------------------------------|--------------------------------|

E|--------------------------------|--------------------------------|

 

 

____Bm______________________________F#m_____________F#m11__________

 

e|-----17b19~~~~~-17~~~-14h17p14--14-17-14--17p14--17p14--17p14--14-17-

B|------------------------------17---------------14-----14-----14--|

G|--------------------------------|--------------------------------|

D|--------------------------------|--------------------------------|

A|--------------------------------|--------------------------------|

E|--------------------------------|--------------------------------|

 

 

___D_______D/A_____A___________D____________D/A_____A______________

(01:33)

e|--------14-----------14---------|-14--------14-------------------|

B|-17b19-------17b19-------17b19--|-----17b19---17p14--14----------|

G|--------------------------------|------------------14--17p16p14-16p14\2-

D|--------------------------------|--------------------------------|

A|--------------------------------|--------------------------------|

E|--------------------------------|--------------------------------|

 

 

____Bm_____________________________________________________________

(01:37)

e|-----------------------17-----------17h19h21-21p19p17------------|

B|-------------12-19-21------17h19h21------------------21-17h19h21-|

G|-2/14----19---------------------|--------------------------------|

D|--------------------------------|--------------------------------|

A|--------------------------------|--------------------------------|

E|--------------------------------|--------------------------------|

 

 

Next two bars are stretched double length for detail...

 

___F#m____________________________________________________________

 

e|-17-------------------------------------------------------------|

B|-----21--19--17------17-----------------------------------------|

G|-----------------19------19--18--16------16---------------------|

D|-------------------------------------19------19--18--16---------|

A|---------------------------------------------------------19-----|

E|----------------------------------------------------------------|

 

 | 1   -   &   -   2   -   &   -   3   -   &   -   4   -   &   -  |

 

___F#m11__________________________________________________________

 

e|---------------------------------------10--------10h12h14p12h14/17-

B|----------------------10p9-----10h12h14--10h12h14---------------|

G|------------------9h11----11h13---------------------------------|

D|-----------/7h9/11----------------------------------------------|

A|-17\------------------------------------------------------------|

E|----------------------------------------------------------------|

 

 

Continues...

 

___G________________________________F#_____________________________

(01:43)

e|-16-----------------------------|-17~~~~~~-----------------------|

B|----17~~~~~~~~~~-14h17p14-------|-----17~~-----------------------|

G|-------------------------16b18~~~~~~~~~~~~18r16---14~~~~------14-|

D|--------------------------------|-----------------------16-------|

A|--------------------------------|--------------------------------|

E|--------------------------------|--------------------------------|

 

___Em______________________________________________________________

 

e|--------------------------------|-14-----------------------------|

B|------------------14---17-------|-------17-----------------------|

G|-16b18r16b18r16b18-----------16^--------------16^-14-------------|

D|--------------------------------|-----------------------16\------|

A|--------------------------------|--------------------------------|

E|--------------------------------|--------------------------------|

 

___G________________________________G/F#___________________________

(01:49)

e|--------------------------------|--------------------------------|

B|--------------------------------|--------------------------------|

G|--------------------------------|--------------------------------|

D|--------------------------------|-----------------5-----7-----9--|

A|-----------------------5-----7--|-5~~~~~~~----5------------------|

E|-3~~~~~~~----5--/7--------------|--------------------------------|

 

 | 1 - & - 2 - & - 3 - & - 4 - & -| 1 - & - 2 - & - 3 - & - 4 - & -|

 

 

___Em______________________________________________________________

 

e|--------------------------------|-10~~~~~~~~~~~~~~------8-7h8p7--|

B|-------------8---7h8p7----------|--------------------------------|

G|-7-----9---------------9-----7--|--------------------------------|

D|--------------------------------|--------------------------------|

A|--------------------------------|--------------------------------|

E|--------------------------------|--------------------------------|

 

___C________________________________G______________________________

 

e|--------------------------------|--------------------------------|

B|-10~~~~~~~~~~8p7h8~~~~~~~~~~~~~~~~~~~~----7h8p7\5----------------|

G|--------------------------------|-----------------7-----5-----4--|

D|--------------------------------|--------------------------------|

A|--------------------------------|--------------------------------|

E|--------------------------------|--------------------------------|

 

___D_______________________________________________________________

                  (three D notes simultaneously! cool)

e|--------------------------------|--------------------------------|

B|--------------------------------|--------------------------------|

G|-5----h7~~~~~~~~~~~~~~~~~~~~~~~~~~~~~~~~~~~~~~~~~~~~~~~~---------|

D|-------------0~~~~~~~~~~~~~~~~~~~~~~~~~~~~~~~~~~~~~~~~~~------5--|

A|-----------------5~~~~~~~~~~~~~~~~~~~~~~~~~~~~~~~~~~~~~~7--------|

E|--------------------------------|--------------------------------|

 

___Am_______________________________C/G____________________________

 

e|--------------------------------|--------------------------------|

B|-----------------8~~~~~~~~~~~~~~~-7h8p7--------------------------|

G|-------7-----9------------------|-------9~~~~p7------------------|

D|-/9-----------------------------|-----------------9~~~~p7\-------|

A|--------------------------------|--------------------------------|

E|--------------------------------|--------------------------------|

 

___F_________________________________________________________

 

e|--------------------------------|--------------------------------|

B|--------------------------------|--------------------------------|

G|--------------------------------|--------------------------------|

D|--------------------------------|-3---3---3---3---3---3---3------|

A|-3---3---3---3---3---3---3---3--|-3---3---3---3---3---3---3------|

E|-1---1---1---1---1---1---1---1--|-1---1---1---1---1---1---1------|

(_______________PM________________)

 

 

Repeat Verse more or less the same as before until:

 

Solo 2.

 

___F_______________________________________________________________

(03:17)

e|--------------------------------|--------------------------------|

B|--------------------------------|--------------------------------|

G|--------------------------------|--------------------------------|

D|--------------------------------|-3---3---3---3---3--------------7-

A|-3---3---3---3---3---3---3---3--|-3---3---3---3---3----------7h9-|

E|-1---1---1---1---1---1---1---1--|-1---1---1---1---1-------/9-----|

(_______________PM________________)

 

 

____Bm______________________________F#m_____________F#m11__________

(03::20)

e|--------------------------------|-10-------10h12h14p12h14/17-16--|

B|-----------------10p9-----10h12h14--10h12h14-------------------17~~

G|-------------9h11----11h13---------------------------------------|

D|-9p7---7-9h11-------------------|--------------------------------|

A|-----9--------------------------|--------------------------------|

E|--------------------------------|--------------------------------|

 

 

___D_______D/A_____A___________D____________D/A_____A______________

 

e|-----------------17~~~~~~~~~~~~~~~~~~~~~~~~~~~~~~~~~~~~~~~~~~~~~~17~

B|-----14--------------17~~~~~~~~~~~~~~~~~~~~~~~~~~~~~~~~~~~~~~~17~~~~

G|---------16b18~~~~~~~~~~~~~~~r^~~~~~~~~~~~~~~~r^~~~~~~~~~~~~~~~~~~~~

D|--------------------------------|--------------------------------|

A|--------------------------------|--------------------------------|

E|--------------------------------|--------------------------------|

 

 

____Bm______________________________F#m_____________F#m11__________

 

e|--------------------------------|-----5--------------------------|

B|-17~~~~~~~~~~~~~~---------------|---------8p5---5----------------|

G|~~~~~~~~~18r16~~~14--------------/6-----------7---5---6---5---6--|

D|---------------------16~~\------|--------------------------------|

A|--------------------------------|--------------------------------|

E|--------------------------------|--------------------------------|

 

 

___D_______D/A_____A___________D____________D/A_____A______________

 

e|--------------------------------|--------------------------------|

B|--------------------------------|--------------------------------|

G|--------------------------------|--------------------------------|

D|-7------------------------------|--------------------------------|

A|-----7---5---4~~~~~~~~~~~~~~~~~~~~~~~~~~~~~~~~~~~~~~~~~~~~~~~~/--|

E|--------------------------------|--------------------------------|

 

____Bm______________________________F#m_____________F#m11__________

 

e|------17~~~~~~------------------|-----17~~~~~~~~~----------------|

B|-10~~~---20b22-----------10~~~~~~~~~------20b22~~\-----10~~~~~~--|

G|-10b12-----------10b12~~~~~~~10b12~~--------------10b12~~~10b12--|

D|--------------------------------|--------------------------------|

A|--------------------------------|--------------------------------|

E|--------------------------------|--------------------------------|

 

___D_______D/A_____A___________D____________D/A_____A______________

 

e|--------------------------------|--------------------------------|

B|-5-------5----------------------|--------------------------------|

G|-5^------5^---------------------|--------------------------------|

D|-----7-------7~~~~~~~~~~~~~~~~~~~~~~~~~~~~~~~~--------7---9\-----|

A|--------------------------------|----------------/9--------------|

E|--------------------------------|--------------------------------|

 

___G________________________________G/F#___________________________

 

e|--------------------------------|--------------------------------|

B|--------------------------------|-----------------8---7h8p7------|

G|--------------------------------|-------7-----9---------------9--|

D|-----------------------------5--7/9------------------------------|

A|-----------------5-----7--------|--------------------------------|

E|-3-----5-----7------------------|--------------------------------|

 

 | 1 - & - 2 - & - 3 - & - 4 - & -| 1 - & - 2 - & - 3 - & - 4 - & -|

 

 

___Em______________________________________________________________

(03:43)

e|-0----------------------10/12----12-15-14------------------------|

B|------10h12h13--10h12h13-----15-----------15~~~~~~~--------------|

G|--------------------------------|--------------------------------|

D|--------------------------------|--------------------------------|

A|--------------------------------|--------------------------------|

E|--------------------------------|--------------------------------|

 

____Bm______________________________F#m_____________F#m11__________

(03:46)

e|-5-------5---5-------5---5------|--------------------------------|

B|-5-------5---5-------5---5---7s8~~~~~~8~~~~~~~8~-----------------|

G|-----7s9---------7s9---------8s9~~~~~~~~~~9~~~~~~\7---5---6---5--|

D|--------------------------------|--------------------------------|

A|--------------------------------|--------------------------------|

E|--------------------------------|--------------------------------|

 

___D_______D/A_____A___________D____________D/A_____A______________

(03:49)

e|--------------------------------|--------------------------------|

B|--------------------------------|--------------------------------|

G|-6---5---6---5---6-------5---6--|--------------------------------|

D|---------------------7----------|-7~~~~~~~~~~~~~~~~\----------7--|

A|--------------------------------|-------------------------7/9----|

E|--------------------------------|--------------------------------|

 

___Bm_______________________________F#m_____________F#m11__________

 

e|--------------------------------|-----------10--------10h12h14-12-14-

B|---------------------------10p9-----10h12h14--10h12h14-----------|

G|-------------------------9-----11h13-----------------------------|

D|----7-7-7----7-7-7-7-9s11-------|--------------------------------|

A|-7h9-----7h9--------------------|--------------------------------|

E|--------------------------------|--------------------------------|

 

___D_______D/A_____A___________D____________D/A_____A______________

 

e|/17--16----------------------17b19~~~~17b19~~~~~~17~~~~~14h17p14-|

B|---------17~~~~~~~~~~~~~~~~~----|-------------------------------17-

G|--------------------------------|--------------------------------|

D|--------------------------------|--------------------------------|

A|--------------------------------|--------------------------------|

E|--------------------------------|--------------------------------|

 

___Bm_______________________________F#m_____________F#m11__________

 

e|-14h17p14--17p14--17p14--17p14--17p14--17p14--17p14--17p14--17p14--14-

B|---------17-----14-----14-----14-----14-----14-----14-----14-----14---

G|--------------------------------|--------------------------------|

D|--------------------------------|--------------------------------|

A|--------------------------------|--------------------------------|

E|--------------------------------|--------------------------------|

 

___D_______D/A_____A___________D____________D/A_____A______________

 

e|-----17-17-17----17-17-17----17-17-17----------------------------|

B|-17b19-------17b19-------17b19--|----17b19r17-14h17p14-----------|

G|--------------------------------|----------------------16-14-16\-|

D|--------------------------------|--------------------------------|

A|--------------------------------|--------------------------------|

E|--------------------------------|--------------------------------|

 

___G_________________________________G/F#__________________________

(04:05)

e|--------------------------------|-----------------10b12~~~~~~~~~~~~

B|----------------------------8--7---------------------------------|

G|-----------------------7--9-----|-9~~~~~~~~~--7------------------|

D|---------------5--7-/9----------|--------------------------------|

A|---------5--7-------------------|--------------------------------|

E|-3--5-/7------------------------|--------------------------------|

 

___Em______________________________________________________________

(04:08)

e|-10----8--7h8p7-----------------|--------------------------------|

B|-----------------8--------------|--------------------------------|

G|-----------------------7~~~~\5--|-4h5p4--------------------------|

D|--------------------------------|--------5-----------------------|

A|--------------------------------|-----------5--3--2h3p2----------|

E|--------------------------------|-------------------------3~~~---|

 

___G________________________________G/F#___________________________

 

e|--------------------------------|--------------------------------|

B|--------------------------------|-----------------8---10b12~~~~~~~

G|--------------------------------|-------7-----9------------------|

D|-----------------------------5--|-9------------------------------|

A|-----------------5-----7--------|--------------------------------|

E|-3-------5h7--------------------|--------------------------------|

 

___Em______________________________________________________________

(04:15)

e|-10~~~~~~~~~~~~~~~~~~~~~~~10----|-10b12--10---8---7--------------|

B|-----10b12~~~~~~~~~~~~~~~~------|--------------------8-----------|

G|--------------------------------|-----------------------7~~~~~~~~~~

D|--------------------------------|--------------------------------|

A|--------------------------------|--------------------------------|

E|--------------------------------|--------------------------------|

 

___C________________________________G______________________________

(04:19)

e|--------------------------------|--------------------------------|

B|-----------------7---8----------|--------------------------------|

G|-7~~~~~~~~~~~~~~~7---9----------|-------7------------------------|

D|---------------------------7~~~~~h9-----7-----9s7-5-----------5--|

A|--------------------------------|-----------------------7--------|

E|--------------------------------|--------------------------------|

 

___D_______________________________________________________________

 

e|--------------------------------|--------------------------------|

B|--------------------------------|--------------------------------|

G|--------------------------------|--------------------------------|

D|-7b9~~~~~~~~~7p5h7~~~~~~~~~~~~~~~~5------------------------------|

A|--------------------------------|---7--6--5~~~~~~~~~~~~~~~~~~~~~~~\

E|--------------------------------|--------------------------------|

 

___Am_______________________________C/G____________________________

(04:25)

e|--------------------------------|--------------------------------|

B|--------------------------------|-------------8---7h8p7----------|

G|--------------------------------|-7-----9----------------9----7~~~\

D|-----------------5-----7----/9--|--------------------------------|

A|-3-----5----/7------------------|--------------------------------|

E|--------------------------------|--------------------------------|

 

 | 1 - & - 2 - & - 3 - & - 4 - & -| 1 - & - 2 - & - 3 - & - 4 - & -|

 

 

___F___

 

e|---------------------------8-10/13-12-------------------------------13~~~~~13~~~~~~13\-|

B|---------------------6-8/10----------13-10h13p10-----10-----10-13b15~~13b15~~~~~~~~15\-|

G|------------------5-7---------------------------12b14--12b14--------------------13b14\-|

D|-------------3-5/7---------------------------------------------------------------------|

A|-3--------3-5--------------------------------------------------------------------------|

E|-1---1-3/5-----------------------------------------------------------------------------|

                                    (free time...)

 

Words & Music by Bill Nelson

© Bill Nelson 2020

  • Facebook Social Icon
  • Twitter Social Icon