Make The Music Magic

-------------------------------------------------------------------------------

Make The Music Magic - Be Bop Deluxe

-------------------------------------------------------------------------------

 

Tabbed by twilightcapers

 

Last song on the 'Modern Music' album.  Short and very sweet.  

Don't forget to detune your E string down to D.

 

 

Tuning: DADGBe - (drop 'D' tuning)

 

 

| /  slide up

| \  slide down

| h  hammer-on

| p  pull-off

| ~  sustain

| +  harmonic

| x  Mute note

|(0) optional note

|A/D chord/bass note 

 

 

 

Intro: lead guitar (acoustic)

 

__No_chord________________________

(lead guitar)

e|--------------------------------|

B|--------------------------------|

G|------------------------------0-|

D|------------------------0h2h4---|

A|--------------------------------|

E|--------------------------------|

 

 

___D__________A/D___________________D___________A/D________________

(lead guitar)

e|--------------------------------|-2---3---2h3p2p0----------------|

B|--------------------------------|---------------------2--p0------|

G|-2~~~~~~~------------4/6-4---2--|-----------------------------2~~|

D|--------------------------------|--------------------------------|

A|--------------------------------|--------------------------------|

E|------------(0)-----------------|--------------------------------|

 

 | 1 - & - 2 - & - 3 - & - 4 - & -| 1 - & - 2 - & - 3 - & - 4 - & -|

 

 

___D__________A/D___________________D___________A/D__________________D_

(lead guitar)

e|--------------------------------|--------------------------------|---

B|--------------------------------|--------------------------------|---

G|~~~~~~~~~------0h2--------------|-------0h2----------------------|---

D|---------0h2h4------------------|-0h2h4--------------------------|-0-

A|---------------------0---2---4--|---------------------0---2---4--|---

E|(0)-----------------------------|------------(0)-----------------|---

 

 

 

Intro: rhythm guitars. Allow bottom three strings to ring - like

bells in the night!

 

 

___D___________A/D__________________D___________A/D________________

 

e|-10----10----9-------9----------|-10----10----9-------9----------|

B|-10----10----10------10---------|-10----10----10------10---------|

G|-11----11----9-------9----------|-11----11----9-------9----------|

D|-0~~~~~~~~~~~~~~~~~~~~~~~~~~~~~~|~0~~~~~~~~~~~~~~~~~~~~~~~~~~~~~~|

A|-0~~~~~~~~~~~~~~~~~~~~~~~~~~~~~~|~0~~~~~~~~~~~~~~~~~~~~~~~~~~~~~~|

E|-0~~~~~~~~~~~~~~~~~~~~~~~0~~~~~~|~0~~~~~~~~~~~~~~~~~~~~~~~0~~~~~~|

 

 | 1 - & - 2 - & - 3 - & - 4 - & -| 1 - & - 2 - & - 3 - & - 4 - & -|

 

 

Repeat until:

 

Verse one: you will have to use your thumb on the E string for the 

'Aadd9' and 'G6' chords.

 

 

___D___________A/D__________________G/D_________D__________________

" Make the music magic              make   your   heart sing  like... "

e|-10----10----9-------9----------|-7-----7-----5-------5----------|

B|-10----10----10------10---------|-8-----8-----7-------7----------|

G|-11----11----9-------9----------|-7-----7-----7-------7----------|

D|-0~~~~~~~~~~~~~~~~~~~~~~~~~~~~~~|~0~~~~~~~~~~~~~~~~~~~~~~~~~~~~~~|

A|-0~~~~~~~~~~~~~~~~~~~~~~~~~~~~~~|~0~~~~~~~~~~~~~~~~~~~~~~~~~~~~~~|

E|-0~~~~~~~~~~~~~~~~~~~~~~~0~~~~~~|~0~~~~~~~~~~~~~~~~~~~~~~~~~~~~~~|

 

 

___Aadd9____________________________Aadd9__________________________

"  angels  in  flight... "

e|-0-----0-----0-------0----------|-0-----0-----0-------0----------|

B|-0-----0-----0-------0----------|-0-----0-----0-------0----------|

G|-6-----6-----6-------6----------|-6-----6-----6-------6----------|

D|-7-----7-----7-------7----------|-7-----7-----7-------7----------|

A|-7-----7-----7-------7----------|-7-----7-----7-------7----------|

E|-7-----7-----7-------7---7------|-7-----7-----7-------7---7------|

 

 

___G6_______________________________Aadd9__________________________

"  Make  the   music   magic        make  my   strings  ring like... "

e|-0-----0-----0-------0----------|-0-----0-----0-------0----------|

B|-0-----0-----0-------0----------|-0-----0-----0-------0----------|

G|-4-----4-----4-------4----------|-6-----6-----6-------6----------|

D|-5-----5-----5-------5----------|-7-----7-----7-------7----------|

A|-5-----5-----5-------5----------|-7-----7-----7-------7----------|

E|-5-----5-----5-------5---5------|-7-----7-----7-------7---7------|

 

 

___G/D______________________________D______________________________

" bells in the night... "              (harmonics)

e|--------------------------------|--------------------------------|

B|------------+12+~~~~~~~~~~~~~~~~|~~~~~~~~~~~~+7+~~~~~~~~~~~~~~~~~|

G|--------+12+~~~~~~~~~~~~~~~~~~~~|~~~~~~~~+7+~~~~~~~~~~~~~~~~~~~~~|

D|----+12+~~~~~~~~~~~~~~~~~~~~~~~~|~~~~+7+~~~~~~~~~~~~~~~~~~~~~~~~~|

A|--------------------------------|--------------------------------|

E|-0~~~~~~~~~~~~~~~~~~~~~~~~~~~~~~|~0~~~~~~~~~~~~~~~~~~~~~~~~~~~~~~|

 

 | 1 - & - 2 - & - 3 - & - 4 - & -| 1 - & - 2 - & - 3 - & - 4 - & -|

 

___G/D______________________________D______________________________

       (harmonics)                     (harmonics)

e|--------------------------------|--------------------------------|

B|------------+12+~~~~~~~~~~~~~~~~|~~~~~~~~~~~~+7+~~~~~~~~~~~~~~~~~|

G|--------+12+~~~~~~~~~~~~~~~~~~~~|~~~~~~~~+7+~~~~~~~~~~~~~~~~~~~~~|

D|----+12+~~~~~~~~~~~~~~~~~~~~~~~~|~~~~+7+~~~~~~~~~~~~~~~~~~~~~~~~~|

A|--------------------------------|--------------------------------|

E|-0~~~~~~~~~~~~~~~~~~~~~~~~~~~~~~|~0~~~~~~~~~~~~~~~~~~~~~~~~~~~~~~|

 

 

 

Verse two:

 

___D___________A/D__________________G/D_________D__________________

" Make  the   music magic           see   the divine    light... "

e|-10----10----9-------9----------|-7-----7-----5-------5----------|

B|-10----10----10------10---------|-8-----8-----7-------7----------|

G|-11----11----9-------9----------|-7-----7-----7-------7----------|

D|-0~~~~~~~~~~~~~~~~~~~~~~~~~~~~~~|~0~~~~~~~~~~~~~~~~~~~~~~~~~~~~~~|

A|-0~~~~~~~~~~~~~~~~~~~~~~~~~~~~~~|~0~~~~~~~~~~~~~~~~~~~~~~~~~~~~~~|

E|-0~~~~~~~~~~~~~~~~~~~~~~~0~~~~~~|~0~~~~~~~~~~~~~~~~~~~~~~~~~~~~~~|

 

 

___Aadd9____________________________Aadd9__________________________

" shining so bright... "

e|-0-----0-----0-------0----------|-0-----0-----0-------0----------|

B|-0-----0-----0-------0----------|-0-----0-----0-------0----------|

G|-6-----6-----6-------6----------|-6-----6-----6-------6----------|

D|-7-----7-----7-------7----------|-7-----7-----7-------7----------|

A|-7-----7-----7-------7----------|-7-----7-----7-------7----------|

E|-7-----7-----7-------7---7------|-7-----7-----7-------7---7------|

 

 

___G6_______________________________Aadd9__________________________

"  Make  the   music   magic        make  my   strings  ring like... "

e|-0-----0-----0-------0----------|-0-----0-----0-------0----------|

B|-0-----0-----0-------0----------|-0-----0-----0-------0----------|

G|-4-----4-----4-------4----------|-6-----6-----6-------6----------|

D|-5-----5-----5-------5----------|-7-----7-----7-------7----------|

A|-5-----5-----5-------5----------|-7-----7-----7-------7----------|

E|-5-----5-----5-------5---5------|-7-----7-----7-------7---7------|

 

 

___G/D______________________________D______________________________

"...bells in the night...                                 ...like... "

e|--------------------------------|--------------------------------|

B|------------+12+~~~~~~~~~~~~~~~~|~~~~~~~~~~~~+7+~~~~~~~~~~~~~~~~~|

G|--------+12+~~~~~~~~~~~~~~~~~~~~|~~~~~~~~+7+~~~~~~~~~~~~~~~~~~~~~|

D|----+12+~~~~~~~~~~~~~~~~~~~~~~~~|~~~~+7+~~~~~~~~~~~~~~~~~~~~~~~~~|

A|--------------------------------|--------------------------------|

E|-0~~~~~~~~~~~~~~~~~~~~~~~~~~~~~~|~0~~~~~~~~~~~~~~~~~~~~~~~~~~~~~~|

 

 

___G/D______________________________D______________________________

"...bells in the night...                                 ...like... "

e|--------------------------------|--------------------------------|

B|------------+12+~~~~~~~~~~~~~~~~|~~~~~~~~~~~~+7+~~~~~~~~~~~~~~~~~|

G|--------+12+~~~~~~~~~~~~~~~~~~~~|~~~~~~~~+7+~~~~~~~~~~~~~~~~~~~~~|

D|----+12+~~~~~~~~~~~~~~~~~~~~~~~~|~~~~+7+~~~~~~~~~~~~~~~~~~~~~~~~~|

A|--------------------------------|--------------------------------|

E|-0~~~~~~~~~~~~~~~~~~~~~~~~~~~~~~|~0~~~~~~~~~~~~~~~~~~~~~~~~~~~~~~|

 

 

 

Repeat last two bars, guitar solo to end...

 

 

Words & Music by Bill Nelson.

© Bill Nelson 2020

  • Facebook Social Icon
  • Twitter Social Icon