Love With The Madman

-------------------------------------------------------------------------------

Love With The Madman - Be Bop Deluxe

-------------------------------------------------------------------------------

 

Tabbed by twilightcapers

 

Second track from the 'Futurama' CD. Another tune written on a piano it would seem, like a lot of songs from this album.  

I have arranged some of the parts for guitar.

 

 

Tuning: EADGBe

 

|(133211) chord shape

| /  slide up

| \  slide down

| b  bend

| r  release bend

| h  hammer-on

| p  pull-off

| ~  vibrato

| +  harmonic

| x  Mute note

| Eb/G chord/bass note

|(3) optional note

 

 

Intro: (piano, arranged for guitar...)

 

___G_______________________________G/F____________________________

 

e|-------------------------------------------------3--------------|

B|-0---------------1--p0-------------------3----------------------|

G|-0---------------0-------2-------0------------------------------|

D|-0-------------------------------0------------------------------|

A|-x-------------------------------x------------------------------|

E|-3-------------------------------1------------------------------|

 

 | 1   -   &   -   2   -   &   -   3   -   &   -   4   -   &   -  |

 

 

___G_______________________________G/F____________________________

 

e|-------------------------------------------------3--------------|

B|-0---------------1--p0-------------------3----------------------|

G|-0---------------0-------2-------0------------------------------|

D|-0-------------------------------0------------------------------|

A|-x-------------------------------x------------------------------|

E|-3-------------------------------1------------------------------|

 

 

___Gsus4___________________________C_______________Db_____________

 

e|----------------------------------------------------------------|

B|-1-------0------------------------------------------------------|

G|-0---------------2-------0-------5---------------6--------------|

D|-0---------------------------2---5---------------6--------------|

A|-x-------------------------------3---------------4--------------|

E|-3--------------------------------------------------------------|

 

 

___Dm_____________________________________________________________

 

e|----------------------------------------------------------------|

B|-6--------------------------------------------------------------|

G|-7-----------7---7----------------------------------------------|

D|-7-----------7---7----------------------------------------------|

A|-5-----------5---5----------------------------------------------|

E|----------------------------------------------------------------|

 

 

 

Main riff:

 

___F_(133211)______________________Bb_(x1333x)____________________

(lead guitar)

e|----------------------------------------------------------------|

B|----------------------------------------------------------------|

G|---------------------------------5b7~~r5b7~~r5b7~~r5b7~~~~~~~~--|

D|----------------------------------------------------------------|

A|---------------------3--h5p3p-----------------------------------|

E|/1-----------3--/5-----------5----------------------------------|

 

 | 1   -   &   -   2   -   &   -   3   -   &   -   4   -   &   -  |

 

 

___F_(133211)______________________Bb_(x1333x)____________________

(lead guitar)

e|----------------------------------------------------------------|

B|----------------------------------------------------------------|

G|---------------------------------5b7~~r5b7~~r5b7~~r5b7~~~~~~~~--|

D|----------------------------------------------------------------|

A|---------------------3--h5p3p-----------------------------------|

E|-1-----------3--h5-----------5----------------------------------|

 

 

___F_(133211)______________________Db_(x4312x)_____Eb_(x6534x)____

(lead guitar)

e|----------------------------------------------------------------|

B|----------------------------------------------------------------|

G|----------------------------------------------------------------|

D|-------------------------3-------5b6~~~~~~--r5p3h5~~~~~3h5p3p0--|

A|-----------------3--h5-------5----------------------------------|

E|-1-------3--h5--------------------------------------------------|

 

 | 1   -   &   -   2   -   &   -   3   -   &   -   4   -   &   -  |

 

 

___F_(1x3211)_____________________________________________________

(lead guitar)

e|----------------------------------------------------------------|

B|----------------------------------------------------------------|

G|----------------------------------------------------------------|

D|-3~~~~~~~~~~~~~~------------------------------------------------|

A|-----------------3~~~~~~~~~~~~~~--------------------------------|

E|---------------------------------1~~~~~~~~~~~~~~~~~~~~~~~~~~~~~-|

 

 

 

Verse: 

There are a lot of ad lib piano parts - I have tabbed some of it

but you could improvise a little and arppegiate the chords.

 

___F______________________________________________________________

" Piano    keys    don't    please    me             they're so...  "

e|-1--------------------------------------------------------------|

B|-1--------------------------------------------------------------|

G|-2--------------------------------------------------------------|

D|-3--------------------------------------------------------------|

A|-3--------------------------------------------------------------|

E|-1--------------------------------------------------------------|

 

 

___Bb______________________________Db______________Eb_____________

 " dark    and     it's    so      easy            to... "

e|----------------------------------------------------------------|

B|-3-------------------------------2---------------4--------------|

G|-3-------------------------------1---------------3--------------|

D|-3-------------------------------3---------------5--------------|

A|-1-------------------------------4---------------6--------------|

E|----------------------------------------------------------------|

 | 1   -   &   -   2   -   &   -   3   -   &   -   4   -   &   -  |

 

 

___F_______________________________Bb_____________________________

" forgive them "

e|-1----------------------------------------------1---------------|

B|-1------------------------------------------1-------1-----------|

G|-2---------------3---2---0-------3------------------------------|

D|-3-------------------------------3------3---------------3-------|

A|-3-------------------------------1------------------------------|

E|-1--------------------------------------------------------------|

 

 

___F_______________________________Db______________Eb_____________

 

e|-1--------------------------------------------------------------|

B|-1-------------------------------2---------------4--------------|

G|-2---------------3---2---0-------1---------------3--------------|

D|-3-------------------------------3---------------5--------------|

A|-3-------------------------------4---------------6--------------|

E|-1--------------------------------------------------------------|

 

 

___F______________________________________________________________

" And     violins      still     scream             from    every... "

e|-1--------------------------------------------------------------|

B|-1--------------------------------------------------------------|

G|-2--------------------------------------------------------------|

D|-3--------------------------------------------------------------|

A|-3--------------------------------------------------------------|

E|-1--------------------------------------------------------------|

 

 

___Bb______________________________Db______________Eb_____________

 " room      you've      ever      passed   your   presence... "

e|----------------------------------------------------------------|

B|-3-------------------------------2---------------4--------------|

G|-3-------------------------------1---------------3--------------|

D|-3-------------------------------3---------------5--------------|

A|-1-------------------------------4---------------6--------------|

E|----------------------------------------------------------------|

 

 

___F_______________________________Bb_____________________________

" through "

e|-1----------------------------------------------1---------------|

B|-1------------------------------------------1-------1-----------|

G|-2---------------3---2---0-------3------------------------------|

D|-3-------------------------------3------3---------------3-------|

A|-3-------------------------------1------------------------------|

E|-1--------------------------------------------------------------|

 

 

___F_______________F/Eb____________F/D_____________F/Db___________

                                                     " but if you... "

e|---------1---------------1---------------1---------------1------|

B|-----1-------1-------1-------1-------1-------1-------1-------1--|

G|----------------------------------------------------------------|

D|-3---------------1---------------0------------------------------|

A|-------------------------------------------------4--------------|

E|----------------------------------------------------------------|

 

 | 1   -   &   -   2   -   &   -   3   -   &   -   4   -   &   -  |

 

 

___C______________________________________________________________

 " hang   'round   here       much longer             you'll go... "

e|----------------------------------------------------------------|

B|-1--------------------------------------------------------------|

G|-0--------------------------------------------------------------|

D|-x--------------------------------------------------------------|

A|-3--------------------------------------------------------------|

E|----------------------------------------------------------------|

 

 

___C______________________________________________________________

 " crazy         with        the     wonder       of         it... "

e|----------------------------------------------------------------|

B|-1--------------------------------------------------------------|

G|-0--------------------------------------------------------------|

D|-x--------------------------------------------------------------|

A|-3--------------------------------------------------------------|

E|----------------------------------------------------------------|

 

 

___F_______________________________Bb_____________________________

" all... "

e|-1----------------------------------------------1---------------|

B|-1------------------------------------------1-------1-----------|

G|-2---------------3---2---0-------3------------------------------|

D|-3-------------------------------3------3---------------3-------|

A|-3-------------------------------1------------------------------|

E|-1--------------------------------------------------------------|

 

 

___F_______________F/Eb____________F/D_____________F/Db___________

                                                     " For... "

e|---------1---------------1---------------1---------------1------|

B|-----1-------1-------1-------1-------1-------1-------1-------1--|

G|----------------------------------------------------------------|

D|-3---------------1---------------0------------------------------|

A|-------------------------------------------------4--------------|

E|----------------------------------------------------------------|

 

 

___C______________________________________________________________

 " love            with        the madman                   is a... "

e|----------------------------------------------------------------|

B|-1--------------------------------------------------------------|

G|-0--------------------------------------------------------------|

D|-x--------------------------------------------------------------|

A|-3--------------------------------------------------------------|

E|----------------------------------------------------------------|

 

 

___C______________________________________________________________

 " sad affair                           a  long,  long  way  to... "

e|----------------------------------------------------------------|

B|-1--------------------------------------------------------------|

G|-0--------------------------------------------------------------|

D|-x--------------------------------------------------------------|

A|-3--------------------------------------------------------------|

E|----------------------------------------------------------------|

 

 

___F_(133211)______________________Bb_(x1333x)____________________

" fall... "

e|----------------------------------------------------------------|

B|----------------------------------------------------------------|

G|---------------------------------5b7~~r5b7~~r5b7~~r5b7~~~~~~~~--|

D|----------------------------------------------------------------|

A|---------------------3--h5p3p-----------------------------------|

E|/1-----------3--/5-----------5----------------------------------|

 

 

___F_(133211)______________________Bb_(x1333x)____________________

(lead guitar)

e|----------------------------------------------------------------|

B|----------------------------------------------------------------|

G|---------------------------------5b7~~r5b7~~r5b7~~r5b7~~~~~~~~--|

D|----------------------------------------------------------------|

A|---------------------3--h5p3p-----------------------------------|

E|-1-----------3--h5-----------5----------------------------------|

 

 

___F_(133211)______________________Db_(x4312x)_____Eb_(x6534x)____

(lead guitar)

e|----------------------------------------------------------------|

B|----------------------------------------------------------------|

G|----------------------------------------------------------------|

D|-------------------------3-------5b6~~~~~~--r5p3h5~~~~~3h5p3p---|

A|-----------------3--h5-------5-------------------------------5--|

E|-1-------3--h5--------------------------------------------------|

 

 

___F_(1x3211)_____________________________________________________

( lead guitar )

e|----------------------------------------------------------------|

B|----------------------------------------------------------------|

G|----------------------------------------------------------------|

D|-3~~~~~~~~~~~~~~------------------------------------------------|

A|-----------------3~~~~~~~~~~~~~~--------------------------------|

E|---------------------------------1~~~~~~~~~~~~~~~~~~~~~~~~~~~~~-|

 

 

 

Repeat from verse, until...

 

Ending...

 

___F_______________________________Bb_____________________________

 

e|-1----------------------------------------------1---------------|

B|-1------------------------------------------1-------1-----------|

G|-2---------------3---2---0-------3------------------------------|

D|-3-------------------------------3------3---------------3-------|

A|-3-------------------------------1------------------------------|

E|-1--------------------------------------------------------------|

 

 

___F_______________________________Db______________Eb_____________

 

e|-1--------------------------------------------------------------|

B|-1-------------------------------2---------------4--------------|

G|-2---------------3---2---0-------1---------------3--------------|

D|-3-------------------------------3---------------5--------------|

A|-3-------------------------------4---------------6--------------|

E|-1--------------------------------------------------------------|

 

 

___G______________________________________________________________

(piano, arr. for guitar)

e|-3--------------------------------------------------------------|

B|-0--------------------------------------------------------------|

G|-0--------------------------------------------------------------|

D|-0--------------------------------------------------------------|

A|-x-------------------------------0---------------3--------------|

E|-3--------------------------------------------------------------|

 

 

___G______________________________________________________________

(piano, arr. for guitar)

e|-3--------------------------------------------------------------|

B|-0--------------------------------------------------------------|

G|-0--------------------------------------------------------------|

D|-0--------------------------------------------------------------|

A|-2--------------------------------------------------------------|

E|-3--------------------------------------------------------------|

 

 

Ending, lead guitar... 

 

___F_(133211)______________________Bb_(x1333x)____________________

 

e|----------------------------------------------------------------|

B|----------------------------------------------------------------|

G|---------------------------------5b7~~r5b7~~r5b7~~r5b7~~~~~~~~--|

D|----------------------------------------------------------------|

A|---------------------3--h5p3p-----------------------------------|

E|/1-----------3--/5-----------5----------------------------------|

 

 

 

___F_(133211)______________________Bb_(x1333x)____________________

(lead guitar)

e|----------------------------------------------------------------|

B|----------------------------------------------------------------|

G|---------------------------------5b7~~r5b7~~r5b7~~r5b7~~~~~~~~--|

D|----------------------------------------------------------------|

A|---------------------3--h5p3p-----------------------------------|

E|-1-----------3--h5-----------5----------------------------------|

 

 

 

___F_(133211)______________________Db_(x4312x)_____Eb_(x6534x)____

(lead guitar)

e|----------------------------------------------------------------|

B|----------------------------------------------------------------|

G|----------------------------------------------------------------|

D|-------------------------3-------5b6~~~~~~--r5p3h5~~~~~3h5p3p0--|

A|-----------------3--h5-------5----------------------------------|

E|-1-------3--h5--------------------------------------------------|

 

 

 

___G_(3x0003)_____________________________________________________

(lead guitar)

e|----------------------------------------------------------------|

B|----------------------------------------------------------------|

G|---------------------------------------------------------12-h14-|

D|-3--h5--/7---5--h7--/9---7--h9--/12--9--h12-/14--12-h14---------|

A|----------------------------------------------------------------|

E|----------------------------------------------------------------|

 

 

 

___G_(320003)_____________________________________________________

(lead guitar)

e|----------------------------------------------------------------|

B|----------------------------------------------------------------|

G|-14-b16-r14-p12-h14-b16~~~~~~~~~~~~~~~~~~~~~~~~~~~~~~~~~~-------|

D|----------------------------------------------------------------|

A|----------------------------------------------------------------|

E|----------------------------------------------------------------|

 

 

Lyrics:

 

Piano keys don't please me

They're so dark and it's so easy to forgive them

And violins still scream 

From every room you've ever passed your presence through

 

But if you hang 'round here much longer

You'll go crazy with the wonder of it all

For love with the madman is a sad affair

A long, long way to fall

 

My orchestras have waited 

They've been baited by the baton you conducted

And every beat's a heartbeat 

In this symphony of trouble and confusion

 

But if you hang 'round here much longer

You'll go crazy with the wonder of it all

For love with the madman is a sad affair

Because...

 

Words & Music by Bill Nelson

© Bill Nelson 2019

  • Facebook Social Icon
  • Twitter Social Icon