Jet Silver And The Dolls Of Venus

-------------------------------------------------------------------------------

Jet Silver And The Dolls Of Venus - Be Bop Deluxe

-------------------------------------------------------------------------------

 

Tabbed by twilightcapers

 

Tuning: EADGBe

 

| /  slide up

| \  slide down

| s  slur (very rapid slide, sounds like one note!)

| h  hammer-on

| p  pull-off

| ~  vibrato or sustain

| b  bend

| r  relax bend

| pb pre-bend note to pitch

| v  Whammy bar

| +  harmonic

| x  Mute note

|(0) optional note

 

 

Intro: (acoustic Guitar rhythm chords shown in brackets) 

 

 

___D_(xx0232)______A/D_(xx0655)_____G/D_(xx0433)____________A/D_(xx0655)_

 

e|12b14r12-10---------------------|--------------------------------|

B|-------------10-----------------|--------------------------------|

G|----------------11b12r11b12r11~-9h11p9p7h9-11p9p7-----7---9------|

D|--------------------------------|-----------------7h9------------|

A|--------------------------------|--------------------------------|

E|--------------------------------|--------------------------------|

 

 | 1 - & - 2 - & - 3 - & - 4 - & -| 1 - & - 2 - & - 3 - & - 4 - & -|

 

 

 

___D_______________A/D______________G/D_____________________A/D______D_

                                       (s = slur: very rapid slide)

e|12b14r12-10---------------------|--------------------------------|---

B|-------------10-----------------|--------------------------------|---

G|-----------------11b12r11b12r11~9h11p9p7h9-11p9p7----------------|---

D|--------------------------------|----------------7h9p7-----------|---

A|--------------------------------|----------------------9s7p5h7p5h7p5~~

E|--------------------------------|--------------------------------|---

 

 

Verse:

 

___D_______________A/D______________G/D_____________________A/D____

"Out across the heavens when you're sleeping in your bed,"

e|-2-------2-------5-------5------|-3-------3-------3-------5------|

B|-3-------3-------5-------5------|-3-------3-------3-------5------|

G|-2-------2-------6-------6------|-4-------4-------4-------6------|

D|-----0-------0-------0-------0--|-----0-------0-------0-------0--|

A|--------------------------------|--------------------------------|

E|--------------------------------|--------------------------------|

(Lead guitar...)

e|--------------------------------|--------------------------------|

B|--------------------------------|--------------------------------|

G|--------------------------------|--------------------------------|

D|--------------------------------|--------------------------------|

A|-5~~~~~~~~~~~~~~~~~~~~~~~~~~~~~~~~~~~~~~~~~~~~~~~~~~~~~~~~~~~~~\-|

E|--------------------------------|--------------------------------|

 

 

 

___D_______________A/D______________G/D____________________________

 "Someone turns a light on, can you feel it burn inside    your..."

e|-2-------2-------5-------5------|-3-------3-------3-------3------|

B|-3-------3-------5-------5------|-3-------3-------3-------3------|

G|-2-------2-------6-------6------|-4-------4-------4-------4------|

D|-----0-------0-------0-------0--|-----0-------0-------0-------0--|

A|--------------------------------|--------------------------------|

E|--------------------------------|--------------------------------|

(Lead guitar...)

e|--------------------------------|--------------------------------|

B|-3------------------------------|--------------------------------|

G|-2------------------------------|--------------------------------|

D|-0------------------------------|--------------------------------|

A|--------------------------------|--------------------------------|

E|--------------------------------|--------------------------------|

 

 

___Fm_______________________________Fm_____________________________

 "head?"

e|-1-------1-------1--------------|-1-------1-------1--------------|

B|-1-------1-------1--------------|-1-------1-------1--------------|

G|-1-------1-------1--------------|-1-------1-------1--------------|

D|-3-------3-------3--------------|-3-------3-------3--------------|

A|-3-------3-------3-------1-2-3--|-3-------3-------3-------1-2-3--|

E|-1-------1-------1--------------|-1-------1-------1--------------|

(Lead guitar...)

e|--------------------------------|--------------------------------|

B|--------------------------------|--------------------------------|

G|--------------------------------|--------------------------------|

D|--------------------------------|--------------------------------|

A|-------------------------1-2-3--|-------------------------1-2-3--|

E|-1~~~~~~~~~~~~~~~~~~~-----------|-1~~~~~~~~~~~~~~~~~~~-----------|

 

 

___D_______________A/D______________G/D_________________________

 "Floating out your window on the  streams of purest sound, can you..."

e|-2-------2-------5-------5------|-3-------3-------3-------3------|

B|-3-------3-------5-------5------|-3-------3-------3-------3------|

G|-2-------2-------6-------6------|-4-------4-------4-------4------|

D|-----0-------0-------0-------0--|-----0-------0-------0-------0--|

A|--------------------------------|--------------------------------|

E|--------------------------------|--------------------------------|

(Lead guitar...)

e|--------------------------------|--------------------------------|

B|-3------------------------------|--------------------------------|

G|-2------------------------------|--------------------------------|

D|-0------------------------------|--------------------------------|

A|--------------------------------|--------------------------------|

E|--------------------------------|--------------------------------|

 

Pre-chorus:

 

___C5______________________B5_______Bb5_____________________B5_____

 "see the town...                                       in midnight..." 

e|--------------------------------|--------------------------------|

B|--------------------------------|--------------------------------|

G|-5-------5-------5-------4------|-3-------3-------3-------4------|

D|-5-------5-------5-------4------|-3-------3-------3-------4------|

A|-3-------3-------3-------2------|-1-------1-------1-------2------|

E|--------------------------------|--------------------------------|

(Lead guitar...)

e|--------------------------------|--------------------------------|

B|--------------------------------|--------------------------------|

G|--------------------------------|--------------------------------|

D|--------------------------------|--------------------------------|

A|-3~~~~~~~~~~~~~~~~~~~----2------|-1~~~~~~~~~~~~~~~~~~~----2------|

E|--------------------------------|--------------------------------|

 

 

___C5______________________B5_______Bb5_____________________B5_____

 "eiderdown...                                     wrapped in your..."

e|--------------------------------|--------------------------------|

B|--------------------------------|--------------------------------|

G|-5-------5-------5-------4------|-3-------3-------3-------4------|

D|-5-------5-------5-------4------|-3-------3-------3-------4------|

A|-3-------3-------3-------2------|-1-------1-------1-------2------|

E|--------------------------------|--------------------------------|

(Lead guitar...)

e|--------------------------------|--------------------------------|

B|--------------------------------|--------------------------------|

G|--------------------------------|--------------------------------|

D|--------------------------------|--------------------------------|

A|-3~~~~~~~~~~~~~~~~~~~----2------|-1~~~~~~~~~~~~~~~~~~~----2------|

E|--------------------------------|--------------------------------|

 

 

___C5______________________B5_______Bb5____________________________

 "Dressing Gown                                        and robed in..."

e|--------------------------------|--------------------------------|

B|--------------------------------|--------------------------------|

G|-5-------5-------5-------4------|-3-------3-------3-------3------|

D|-5-------5-------5-------4------|-3-------3-------3-------3------|

A|-3-------3-------3-------2------|-1-------1-------1-------1------|

E|--------------------------------|--------------------------------|

(Lead guitar...)

e|--------------------------------|--------------------------------|

B|--------------------------------|--------------------------------|

G|--------------------------------|--------------------------------|

D|--------------------------------|--------------------------------|

A|-3~~~~~~~~~~~~~~~~~~~----2------|-1~~~~~~~~~~~~~~~~~~~~~~~-------|

E|--------------------------------|--------------------------------|

 

 

___A5______A/G_____A/F#____A/E______A5______A/G_____A/F#____A/E____

 "Space..."

e|--------------------------------|--------------------------------|

B|--------------------------------|--------------------------------|

G|-2-------2-------2-------2------|-2-------2-------2-------2------|

D|-2-------2-------2-------2------|-2-------2-------2-------2------|

A|-0---0-0-x-------x-------x------|-0---0-0-x-------x-------x------|

E|---------3---3-3-2---2-2-0---0-0----------3---3-3-2---2-2-0---0-0-

 

 

Chorus:

 

___D________________________________C6add9_________________________

 "Jet             Sil-ver and the  Dolls       Of Ve - nus span the..."

e|--------------------------------|--------------------------------|

B|--------------------------------|--------------------------------|

G|---------2-----------2----------|---------2-----------2----------|

D|-----4-----------4-----------4--|-----2-----------2-----------2--|

A|-5-----------5-----------5------|-3-----------3-----------3------|

E|--------------------------------|--------------------------------|

(lead guitar...)

e|--------------------------------|--------------------------------|

B|--------------------------------|--------------------------------|

G|-7-7---7-7---7-7---7-7---7-7----7-7-7---7-7---7-7---7-7---7-7----7

D|--------------------------------|--------------------------------|

A|--------------------------------|--------------------------------|

E|--------------------------------|--------------------------------|

 

 | 1 - & - 2 - & - 3 - & - 4 - & -| 1 - & - 2 - & - 3 - & - 4 - & -|

 

 

 

___G/B______________________________Bb______________C#_____________

 "Space       between us  with a   tune..."

e|--------------------------------|--------------------------------|

B|--------------------------------|--------------------------------|

G|---------0-----------0----------|---------3---------------6------|

D|-----0-----------0-----------0--|-----3-------3-------6-------6--|

A|-2-----------2-----------2------|-1--------------/4--------------|

E|--------------------------------|--------------------------------|

(lead guitar...)

e|--------------------------------|--------------------------------|

B|--------------------------------|--------------------------------|

G|-7-7---7-7---7-7---7-7---7-7--7-7-7/9-9-9-9/11-11-11-11/12-12-12-12\

D|--------------------------------|--------------------------------|

A|--------------------------------|--------------------------------|

E|--------------------------------|--------------------------------|

 

 | 1 - & - 2 - & - 3 - & - 4 - & -| 1 - & - 2 - & - 3 - & - 4 - & -|

 

 

Lead guitar then copies rhythm guitar as below...

 

___D________________________________C6add9_________________________

 "Jet             Sil-ver and the  Dolls       of Venus    play their..."

e|--------------------------------|--------------------------------|

B|--------------------------------|--------------------------------|

G|---------2-----------2----------|---------2-----------2----------|

D|-----4-----------4-----------4--|-----2-----------2-----------2--|

A|-5-----------5-----------5------|-3-----------3-----------3------|

E|--------------------------------|--------------------------------|

 

 

___G/B______________________________Bb______________C#_____________

 "Mu    -    sic 'specially   for  you..."

e|--------------------------------|--------------------------------|

B|--------------------------------|--------------------------------|

G|---------0-----------0----------|---------3---------------6------|

D|-----0-----------0-----------0--|-----3-------3-------6-------6\-|

A|-2-----------2-----------2------|-1--------------/4--------------|

E|--------------------------------|--------------------------------|

 

 

 

___D_______________A/D______________G/D_____________________A/D____

(acoustic guitar...)

e|-2-------2-------5-------5------|-3-------3-------3-------5------|

B|-3-------3-------5-------5------|-3-------3-------3-------5------|

G|-2-------2-------6-------6------|-4-------4-------4-------6------|

D|-----0-------0-------0-------0--|-----0-------0-------0-------0--|

A|--------------------------------|--------------------------------|

E|--------------------------------|--------------------------------|

(Lead guitar...)

e|--------------------------------|--------------------------------|

B|-3------------------------------|--------------------------------|

G|-2------------------------------|--------------------------------|

D|-0------------------------------|--------------------------------|

A|--------------------------------|--------------------------------|

E|--------------------------------|--------------------------------|

 

 

 

Repeat Intro.

Repeat Verse.

Repeat Chorus.

 

Guitar solo:  (over chord sequence below...)

 

 

___D________________________________C6add9_________________________

 

e|--------------------------------|--------------------------------|

B|--------------------------------|--------------------------------|

G|---------2-----------2----------|---------2-----------2----------|

D|-----4-----------4-----------4--|-----2-----------2-----------2--|

A|-5-----------5-----------5------|-3-----------3-----------3------|

E|--------------------------------|--------------------------------|

 

 | 1 - & - 2 - & - 3 - & - 4 - & -| 1 - & - 2 - & - 3 - & - 4 - & -|

 

 

 

___G/B______________________________Bb______________c#_____________

 

e|--------------------------------|--------------------------------|

B|--------------------------------|--------------------------------|

G|---------0-----------0----------|---------3---------------6------|

D|-----0-----------0-----------0--|-----3-------3-------6-------6--|

A|-2-----------2-----------2------|-1--------------/4--------------|

E|--------------------------------|--------------------------------|

 

 

 

Ending: massive D chord with feedback and whammy abuse!

 

___D_______________________________________________________________

              (feedback...)

e|-----------------------------------------------------------------|

B|-3~~~~~~~~~~~~~~~~~~~~v~~~~~~~~~~~~~~~v~~~~~~~~~~v~~~~~v~~v~~v~~~~

G|-2~~~~~~~~~~~~~~~~~~~~v~~~~~~~~~~~~~~~v~~~~~~~~~~v~~~~~v~~v~~v~~~~

D|-0~~~~~~~~~~~~~~~~~~~~v~~~~~~~~~~~~~~~v~~~~~~~~~~v~~~~~v~~v~~v~~~~

A|-----------------------------------------------------------------|

E|-----------------------------------------------------------------|

   (free time...)

 

 

 

And now, if you're ready...

 

Guitar Solo:

 

___D______________________________________________________________

(02:36)

e|---------10----------10~~~~~~----10~~~~~~10~~~~~~10~~~~~~~~~~~~-|

B|-------------10--13--13b15~~~----13b15~~~13b15~~~13b15~~~~~~~~~-|

G|----------------------------------------------------------------|

D|/12-------------------------------------------------------------|

A|----------------------------------------------------------------|

E|----------------------------------------------------------------|

 

 | 1   -   &   -   2   -   &   -   3   -   &   -   4   -   &   -  |

 

 

___C6/9___________________________________________________________

 

e|-10-------------------------------------------------------------|

B|-----13--10h13p10-----------------------------------------------|

G|-----------------12--14--10------12--10^------------------------|

D|-------------------------10--12--12------12--10--12~~~~~~\------|

A|-----------------------------12---------------------------------|

E|----------------------------------------------------------------|

 

 

 

___G/B____________________________________________________________

 

e|---------------------------------------------------------17-----|

B|--------------------------------------------15---17b19~~~~~~~19~~r17-

G|-------------------------------------14--16---------------------|

D|-----------------12------12--14-/16-----------------------------|

A|--------/14----------14-----------------------------------------|

E|----------------------------------------------------------------|

 

 

___Bb______________________________C#_____________________________

 

e|----------------------------------------------------------------|

B|-17--15---------------------------------------------------------|

G|---------16~~~-----------14h16p14h16p14h16p14~~~h16~b18~r16-p16-|

D|----------------------------------------------------------------|

A|----------------------------------------------------------------|

E|----------------------------------------------------------------|

 

 

___D______________________________________________________________

(02:48)

e|----------------------------------------------------------------|

B|----------------------------------------------------------------|

G|-16~~--------14h16p14\12-14p12p11-12p11--11---------------------|

D|---------------------------------------12----12-----------------|

A|-------------------------------------------------12~~~~~~\------|

E|----------------------------------------------------------------|

 

 

___C6/9___________________________________________________________

 

e|----------------------------------------------------------------|

B|----------------------------------------------------------------|

G|--------------------------------------------16-14--------14-----|

D|----------12-14b15r14p12-14p12---12--14/16-------16-14-16--16-14-16-

A|-----12-14--------------------14--------------------------------|

E|----------------------------------------------------------------|

 

 

___G/B____________________________________________________________

 

e|----------------------------------------------------------------|

B|-------------------------------------------------------14----15-|

G|-14--------14--------14--------14---16---14------16-------------|

D|---16-14-16--16-14-16--16-14-16---------------------------------|

A|----------------------------------------------------------------|

E|----------------------------------------------------------------|

 

 

___Bb______________________________C#_____________________________

(02:56)

e|-----------------------14----15-/17-----17---17~~~~~~~~~b19~~~~~~

B|-17----14----15--17---------------------------------------------|

G|----------------------------------------------------------------|

D|----------------------------------------------------------------|

A|----------------------------------------------------------------|

E|----------------------------------------------------------------|

 

 

___D______________________________________________________________

(02:59)

e|~19~~~~~~~~~~~~~~19~~~~~r17--17--17--------------17-------------|

B|-------------------------------------17b19~~~~~~~----19r17---15-|

G|----------------------------------------------------------------|

D|----------------------------------------------------------------|

A|----------------------------------------------------------------|

E|----------------------------------------------------------------|

 

 

___C6/9___________________________________________________________

 

e|---------------------------------10-----------------------------|

B|-------------------------------------10--13------10-------------|

G|-16~~~~~~~~~~~~~~\-------------/-------------12--10--10---------|

D|---------------------------------------------------------12--10-|

A|----------------------------------------------------------------|

E|----------------------------------------------------------------|

 

 

___G/B____________________________________________________________

 

e|----------------------------------------------------------------|

B|----------------------------------------------------------------|

G|----------------------------------------------------------------|

D|-12--10---------------------------------------------------------|

A|--------12s10-8--10------8---10--8-----------------------8------|

E|---------------------10------------------10--8---10-------------|

 

 

 

___Bb______________________________C#_____________________________

(03:07)

e|-----------------------------------------------------17------17-|

B|-----------------------------------------15--17-b19~~~~~~19~~~~~~

G|---------------------------------14--16-------------------------|

D|---------10----------12--14--16---------------------------------|

A|-10-/12------12--14---------------------------------------------|

E|----------------------------------------------------------------|

 

 | 1   -   &   -   2   -   &   -   3   -   &   -   4   -   &   -  |

 

 

___D______________________________________________________________

 

e|-----17------17-------------------------------------------------|

B|~19~~~~~~19~~~~~~19-r17--15--------------15------15-------------|

G|-----------------------------16~~--------17b19---17b19----------|

D|----------------------------------------------------------------|

A|----------------------------------------------------------------|

E|----------------------------------------------------------------|

 

 

___C6/9___________________________________________________________

(03:12)

e|-20b22--22--22---22---22---22----22r20\------------------10-----|

B|-------------------------------------------------------------10-|

G|-------------------------------------------------0/-------------|

D|----------------------------------------------------------------|

A|----------------------------------------------------------------|

E|----------------------------------------------------------------|

 

 

___G/B____________________________________________________________

 

e|-----------------10~~~~~~~~~~~~~/13~~~~~~~~~~13~~~~~~~~~~\------|

B|-13b15~~~~~~~~~~~13b15~~~~~~~~~~/16b18~~~~~~~16b18~~~~~~~\------|

G|----------------------------------------------------------------|

D|----------------------------------------------------------------|

A|----------------------------------------------------------------|

E|----------------------------------------------------------------|

 

 

___Bb______________________________C#_____________________________

 

e|-----10---------------------------------------------------------|

B|----------------------------------------------------------------|

G|/10------10-----------------------------------------------------|

D|-------------12--10---------------------------------------------|

A|---------------------12s10---8---10--8-----------8^-------------|

E|-----------------------------------------10---------------------|

 

 

Bill's signature lick...

 

 

___D______________________________________________________________

(03:20)

e|-12p10---14p10---12p10---14p10---12p10---14p10---12p10---14p10--|

B|------10------10------10------10------10------10------10------10-

G|----------------------------------------------------------------|

D|----------------------------------------------------------------|

A|----------------------------------------------------------------|

E|----------------------------------------------------------------|

 

 | 1   -   &   -   2   -   &   -   3   -   &   -   4   -   &   -  |

 

 

___C6/9___________________________________________________________

 

e|-12p10---14p10---12p10---14p10---12p10---14p10---12p10---14p10--|

B|------10------10------10------10------10------10------10------10-

G|----------------------------------------------------------------|

D|----------------------------------------------------------------|

A|----------------------------------------------------------------|

E|----------------------------------------------------------------|

 

 

___G/B_____________________________________________________________

 

e|-12p10---14p10---12p10---14p10---12p10---14p10---12p10---14p10--|

B|------10------10------10------10------10------10------10------10-

G|----------------------------------------------------------------|

D|----------------------------------------------------------------|

A|----------------------------------------------------------------|

E|----------------------------------------------------------------|

 

 

___Bb______________________________C#_____________________________

 

e|----------------------------------------------------------------|

B|----------------------------------------------------------------|

G|-7-----7-----7--/9-----9-----9---10----10----10-/12~~~~~~\------|

D|----------------------------------------------------------------|

A|----------------------------------------------------------------|

E|----------------------------------------------------------------|

 

 

Finale: (all guitars together...)

 

 

___D________________________________C6add9_________________________

 

e|--------------------------------|--------------------------------|

B|--------------------------------|--------------------------------|

G|---------2-----------2----------|---------2-----------2----------|

D|-----4-----------4-----------4--|-----2-----------2-----------2--|

A|-5-----------5-----------5------|-3-----------3-----------3------|

E|--------------------------------|--------------------------------|

 

 | 1 - & - 2 - & - 3 - & - 4 - & -| 1 - & - 2 - & - 3 - & - 4 - & -|

 

 

___G/B______________________________Bb______________c#_____________

 

e|--------------------------------|--------------------------------|

B|--------------------------------|--------------------------------|

G|---------0-----------0----------|---------3---------------6------|

D|-----0-----------0-----------0--|-----3-------3-------6-------6--|

A|-2-----------2-----------2------|-1--------------/4--------------|

E|--------------------------------|--------------------------------|

 

 

___D_______________________________________________________________

              (feedback...)

e|-----------------------------------------------------------------|

B|-3~~~~~~~~~~~~~~~~~~~~v~~~~~~~~~~~~~~~v~~~~~~~~~~v~~~~~v~~v~~v~~~~

G|-2~~~~~~~~~~~~~~~~~~~~v~~~~~~~~~~~~~~~v~~~~~~~~~~v~~~~~v~~v~~v~~~~

D|-0~~~~~~~~~~~~~~~~~~~~v~~~~~~~~~~~~~~~v~~~~~~~~~~v~~~~~v~~v~~v~~~~

A|-----------------------------------------------------------------|

E|-----------------------------------------------------------------|

   (free time...)

Words & Music by Bill Nelson

© Bill Nelson 2020

  • Facebook Social Icon
  • Twitter Social Icon