Furniture Music

-------------------------------------------------------------------------------

Furniture Music - Red Noise

-------------------------------------------------------------------------------

 

Tabbed by twilightcapers

 

From the album, Sound on Sound.

 

Tuning: EADGBe

 

| /  slide up

| \  slide down

| h  hammer-on

| p  pull-off

| ~  vibrato

| +  harmonic

| x  Mute note

 

 

Intro: electric guitar with lots of fuzz...

 

 

 

___B5__________________D5___________B5__________________D5_________

 

e|--------------------------------|--------------------------------|

B|--------------------------------|--------------------------------|

G|---------------------7~~~~~~~~~-|---------------------7~~~~~~~~~-|

D|-9-------9-----------7~~~~~~~~~-|-9-------9-----------7~~~~~~~~~-|

A|-9-------9-----------5~~~~~~~~~-|-9-------9-----------5~~~~~~~~~-|

E|-7---7---7---7---7--------------|-7---7---7---7---7--------------|

 

 | 1 - & - 2 - & - 3 - & - 4 - & -| 1 - & - 2 - & - 3 - & - 4 - & -|

 

twice and then...

 

 

___A5__________________E5___________A5__________________E5_________

 

e|--------------------------------|--------------------------------|

B|--------------------------------|--------------------------------|

G|---------------------9~~~~~~~~~-|---------------------9~~~~~~~~~-|

D|-7-------7-----------9~~~~~~~~~-|-7-------7-----------7~~~~~~~~~-|

A|-7-------7-----------7~~~~~~~~~-|-7-------7-----------7~~~~~~~~~-|

E|-5---5---5---5---5--------------|-5---5---5---5---5--------------|

 

 

twice and then...

 

 

Verse:

 

 

 

___B5__________________D5___________B5__________________D5_________

     " I   get so  tired   of  my   room... "

e|--------------------------------|--------------------------------|

B|--------------------------------|--------------------------------|

G|---------------------7~~~~~~~~~-|---------------------7~~~~~~~~~-|

D|-9-------9-----------7~~~~~~~~~-|-9-------9-----------7~~~~~~~~~-|

A|-9-------9-----------5~~~~~~~~~-|-9-------9-----------5~~~~~~~~~-|

E|-7---7---7---7---7--------------|-7---7---7---7---7--------------|

 

 

 

___B5__________________D5___________B5__________________D5_________

     " it makes the same sounds every day... "

e|--------------------------------|--------------------------------|

B|--------------------------------|--------------------------------|

G|---------------------7~~~~~~~~~-|---------------------7~~~~~~~~~-|

D|-9-------9-----------7~~~~~~~~~-|-9-------9-----------7~~~~~~~~~-|

A|-9-------9-----------5~~~~~~~~~-|-9-------9-----------5~~~~~~~~~-|

E|-7---7---7---7---7--------------|-7---7---7---7---7--------------|

 

 

___A5__________________E5___________A5__________________E5_________

     " sometimes I move my things  around... "

e|--------------------------------|--------------------------------|

B|--------------------------------|--------------------------------|

G|---------------------9~~~~~~~~~-|---------------------9~~~~~~~~~-|

D|-7-------7-----------9~~~~~~~~~-|-7-------7-----------7~~~~~~~~~-|

A|-7-------7-----------7~~~~~~~~~-|-7-------7-----------7~~~~~~~~~-|

E|-5---5---5---5---5--------------|-5---5---5---5---5--------------|

 

 

___A5__________________E5___________A5__________________E5_________

      " it helps eliminate the  boredom... "

e|--------------------------------|--------------------------------|

B|--------------------------------|--------------------------------|

G|---------------------9~~~~~~~~~-|---------------------9~~~~~~~~~-|

D|-7-------7-----------9~~~~~~~~~-|-7-------7-----------7~~~~~~~~~-|

A|-7-------7-----------7~~~~~~~~~-|-7-------7-----------7~~~~~~~~~-|

E|-5---5---5---5---5--------------|-5---5---5---5---5--------------|

 

 

Chorus:

 

 

___F#5_________________A5___________E5__________________D5_________

1)                               "  furniture music...

2)                     I make       furniture music...

3)                     I like       furniture music... "

e|--------------------------------|--------------------------------|

B|--------------------------------|---------------------3~~~~~~~~~-|

G|---------------------2~~~~~~~~~-|---------------------2~~~~~~~~~-|

D|-4-------4-----------2~~~~~~~~~-|-2-------2-----------0~~~~~~~~~-|

A|-4-------4-----------0~~~~~~~~~-|-2-------2----------------------|

E|-2---2---2---2---2--------------|-0---0---0---0---0--------------|

 

 

___F#5_________________A5___________E5_____________________________

4)                  "  O - K...  "

e|--------------------------------|--------------------------------|

B|--------------------------------|--------------------------------|

G|---------------------2---2------|--------------------------------|

D|-4---4---4-----------2---2------|-2---2---2----------------------|

A|-4---4---4-----------0---0------|-2---2---2----------------------|

E|-2---2---2----------------------|-0---0---0----------------------|

 

 

Repeat verse.

 

Repeat chorus.

 

 

Middle part: (use thumb for note on bottom E string...)

 

Let chords ring...

 

 

___Fmaj7___________________________________________________________

 " my     room     has     the      mo   -  dern    style   of... "

e|-0------------------------------|--------------------------------|

B|-1------------------------------|--------------------------------|

G|-2------------------------------|--------------------------------|

D|-3------------------------------|--------------------------------|

A|-3------------------------------|--------------------------------|

E|-1------------------------------|--------------------------------|

   t    

 

___G6______________________________________________________________

" interior deco  - ra   -  tion... "

e|-0------------------------------|--------------------------------|

B|-3------------------------------|--------------------------------|

G|-4------------------------------|--------------------------------|

D|-5------------------------------|--------------------------------|

A|-5------------------------------|--------------------------------|

E|-3------------------------------|-3---3-----------3---3----------|

   t

 | 1 - & - 2 - & - 3 - & - 4 - & -| 1 - & - 2 - & - 3 - & - 4 - & -|

 

Repeat middle part chord sequence a few times.

 

Repeat verse and chorus.

 

 

 

Words and music by Bill Nelson.

© Bill Nelson 2019

  • Facebook Social Icon
  • Twitter Social Icon