For Young Moderns

-------------------------------------------------------------------------------

For Young Moderns - Red Noise

-------------------------------------------------------------------------------

 

Tabbed by: twilightcapers

 

Tuning: EADGBe

 

 

| /  slide up

| x  Mute note

|(02:10) time marker

 

From the seminal album Sound On Sound.  Some of the songs on this album have 

slightly different tuning due to tape speed variations, deliberate no doubt. 

Unless you have a pitch adjustable player you may have to re-tune the guitar. 

 

 

Intro/riff 1:

 

___E7______________________________________________________________

 

e|--------------------------------|--------------------------------|

B|-------------7-----------9------|-------------7-----------9------|

G|---------9-------------------9--|---------9-----------9----------|

D|-----7---------------7----------|-----7--------------------------|

A|--------------------------------|--------------------------------|

E|-0---------------0--------------|-0---------------0--------------|

 

 | 1 - & - 2 - & - 3 - & - 4 - & -| 1 - & - 2 - & - 3 - & - 4 - & -|

 

 

Verse:

 

___E___________________________G#___A______________________________

              "The old world is burning...etc

e|--------------------------------|--------------------------------|

B|--------------------------------|--------------------------------|

G|-9-------9----------------------|--------------------------------|

D|-9-------9----------------------|---------7---7-----------7------|

A|-7-------7-------------------6---/7---7---7---7---7---7---7------|

E|-----------------0---0---0---4---/5---5---5---5---5---5---5------|

 

 | 1 - & - 2 - & - 3 - & - 4 - & -| 1 - & - 2 - & - 3 - & - 4 - & -|

 

 

Riff 2:

 

___D________________________________C______________________________

 

e|--------------------------------|--------------------------------|

B|--------------------------------|--------------------------------|

G|--------------------------------|--------------------------------|

D|-7-------7---------------5------|-5-------5---------------7------|

A|-5-------5-----------4-------4--|-3-------3-----------6-------6--|

E|-----------------3--------------|-----------------5--------------|

 

 | 1 - & - 2 - & - 3 - & - 4 - & -| 1 - & - 2 - & - 3 - & - 4 - & -|

 

 

___D________________________________C______________________________

 

e|--------------------------------|--------------------------------|

B|--------------------------------|--------------------------------|

G|--------------------------------|-----------------2-------2------|

D|-7-------7---------------5------|-5-------5-------2-------2------|

A|-5-------5-----------4-------4--|-3-------3-------0-------0------|

E|-----------------3--------------|--------------------------------|

 

 

Verse key change @ 1:04

 

___F#__________________________A#__B_______________________________

 "It's a brave new world for young moderns...etc

e|--------------------------------|--------------------------------|

B|--------------------------------|--------------------------------|

G|--------------------------------|--------------------------------|

D|-4-------4-------------------8----9---9---9---9---9---9---9------|

A|-4-------4-------------------8----9---9---9---9---9---9---9------|

E|-2-------2-------------------6----7---7---7---7---7---7---7------|

 

 

Riff 3:

 

___B_______A#______A_______G#_______C#______C_______B_______A#_____

 

e|--------------------------------|--------------------------------|

B|--------------------------------|--------------------------------|

G|--------------------------------|--------------------------------|

D|--------------------------------|-6--6--6-5--5--5-4--4--4-3--3--3-

A|-9---9---8---8---7---7---6---6--|-4--4--4-3--3--3-2--2--2-1--1--1-

E|-7---7---6---6---5---5---4---4--|--------------------------------|

 

 

Chorus:

 

___A_______G_______D________________A_______G_______Bm_____________

           "It's a brave new world!             For boys and girls...""

e|--------------------------------|--------------------------------|

B|-----------------3--------------|--------------------------------|

G|-2---------------2--------------|-2---------------4--------------|

D|-2-------5-------0--------------|-2-------5-------4--------------|

A|-0-------5----------------------|-0-------5-------2--------------|

E|---------3----------------------|---------3----------------------|

 

 

___A_______G_______D_______A________Bm_____________________________

           "It's a brave   new      world..."

e|--------------------------------|--------------------------------|

B|-----------------3--------------|--------------------------------|

G|-2---------------2-------2------|-4------------------------------|

D|-2-------5-------0-------2------|-4------------------------------|

A|-0-------5---------------0------|-2------------------------------|

E|---------3----------------------|--------------------------------|

 

Until:

 

___A_______G_______D_______A______

           "It's a brave   new..." 

e|--------------------------------|

B|-----------------3--------------|

G|-2-------0-------2-------2------|

D|-2-------0-------0-------2------|

A|-0-------x---------------0------|

E|---------3----------------------|

 

Riff 1:

 

___E7______________________________________________________________

  "world..."

e|--------------------------------|--------------------------------|

B|-------------7-----------9------|-------------7-----------9------|

G|---------9-------------------9--|---------9-----------9----------|

D|-----7---------------7----------|-----7--------------------------|

A|--------------------------------|--------------------------------|

E|-0---------------0--------------|-0---------------0--------------|

 

 

Riff 4: (verse, @ 2:04) "solid-state..."

 

___B_______Bb_____A______G#_______

  "fake..."

e|--------------------------------|

B|--------------------------------|

G|--------------------------------|

D|--------------------------------|

A|-9--9--9-8--8--8-7-----6--------|

E|-7--7--7-6--6--6-5-----4-----0--|

 

Then riff 2, etc.

 

 

Ending/piano solo:

 

___E___________________D/E__________E___________G/E________________

 

e|---------12----------10---------|-12----------15-----------------|

B|---------12----------10---------|-12----------15-----------------|

G|---------13----------11---------|-13----------16-----------------|

D|---------14----------12---------|-14----------17-----------------|

A|--------------------------------|--------------------------------|

E|-0---0-------0---0-------0---0--|-----0---0---------------0---0--|

 

 | 1 - & - 2 - & - 3 - & - 4 - & -| 1 - & - 2 - & - 3 - & - 4 - & -|

 

 

___E___________________D/E__________E______________________________

 

e|---------12----------10---------|-12-----------------------------|

B|---------12----------10---------|-12-----------------------------|

G|---------13----------11---------|-13-----------------------------|

D|---------14----------12---------|-14-----------------------------|

A|--------------------------------|--------------------------------|

E|-0---0-------0---0-------0---0--|-----0---0---0---0---0---0---0--|

 

Repeat until:

 

 

___E5______________D5/E_____________G_______________D______________

 

e|--------------------------------|--------------------------------|

B|--------------------------------|-----------------7----7----7----|

G|---------9-------7--------------|-12---12---12----7----7----7----|

D|---------9-------7--------------|-12---12---12----7----7----7----|

A|--------------------------------|--------------------------------|

E|-0---0-------0-------0---0---0--|--------------------------------|

 

 

___E5______________D5/E_____________G_______________D______________

 

e|--------------------------------|--------------------------------|

B|--------------------------------|-----------------7----7----7----|

G|-9-------9-------7--------------|-12---12---12----7----7----7----|

D|-9-------9-------7--------------|-12---12---12----7----7----7----|

A|-7------------------------------|--------------------------------|

E|-----0-------0-------0---0---0--|--------------------------------|

 

 

___E5______________________________________________________________

 

e|--------------------------------|--------------------------------|

B|--------------------------------|--------------------------------|

G|-9------------------------------|--------------------------------|

D|-9------------------------------|--------------------------------|

A|-7------------------------------|--------------------------------|

E|--------------------------------|--------------------------------|

 

 

 

Words & Music by Bill Nelson

© Bill Nelson 2020

  • Facebook Social Icon
  • Twitter Social Icon