End Of The Seasons

-------------------------------------------------------------------------------

End Of The Seasons - Bill Nelson

-------------------------------------------------------------------------------

 

Tabbed by Twilightcapers

 

Tuning:EADGBe - standard concert pitch.

 

| x mute note

|(079900) chord shape

| ~ vibrato or sustain

| / slide up

| \ slide down

| h hammer-on

| p pull-off

| D/A chord/bass note(or chord inversion)

| b bend

| ^ quarter tone or slight bend

| r release bend

|(9)optional/alternative note

|(00:31) time marker

 

 

From the Northern Dream album.  

 

 

Intro: (12/8 Rhythm) 

 

 

___C#m_(x46654)_______G#m_(466444)_______C#m_(x46654)_______G#m_(466444)_____

 

 

Part 1:

 

___C#m_(x46654)_______G#m_(466444)_______C#m_(x46654)_______F#_(244322)______

  "Down  by       the river       the    bridges     get    thinner     the..."

 

 

___C#m_(x46654)_______G#m_(466444)_______A_(577655)___________________________

  "buildings     once white turn      to grey..."

 

 

Repeat part 1, then one bar of G# @ 00:35

 

___G#_(466544)_________________________

 

 

Repeat part one, until:

 

___C#m________________G#m________________A___________________________________

"Undress  all   your  dresses     of     blue..."

e|-4------------------4------------------5-----------------------------------|

B|-5------------------4------------------5------------------------9----12--12b14~

G|-6------------------4------------------6------------------9---11-----------|

D|-6------------------6------------------7-----------9---11------------------|

A|-4------------------6------------------7-----------------------------------|

E|--------------------4------------------5-----------------------------------|

 

 

Part 2: 

 

(Guitar solo, @ 01:05...)

 

___B5_(x244xx)_______G5_(355xxx)_________A5_(x022xx)________E5_(022xxx)______

 

e|---------------------------------------------------------------------------|

B|~r12~--------12b14--12~---------10-p9--10----------------------------------|

G|---------------------------------------------------9b11~~r9~~~~~~~~~~------|

D|---------------------------------------------------------------------------|

A|---------------------------------------------------------------------------|

E|---------------------------------------------------------------------------|

 

 

___B5_(x244xx)_______G5_(355xxx)_________A5_(x022xx)________E5_(022xxx)______

 

e|---------------------------------------------------------------------------|

B|-10--12------12b14-12~~----------10p9h10~----------10p9p7h9~~--------------|

G|---------------------------------------------------------------------------|

D|---------------------------------------------------------------------------|

A|---------------------------------------------------------------------------|

E|---------------------------------------------------------------------------|

 

 

___B5_(x244xx)_______G5_(355xxx)_________A5_(x022xx)________E5_(022xxx)______

 01:15

e|---------------------------------------------------------------------------|

B|-12----------14----14b15~~------15-p12-14---------12p10p9-12--8^-----------|

G|---------------------------------------------------------------------------|

D|---------------------------------------------------------------------------|

A|---------------------------------------------------------------------------|

E|---------------------------------------------------------------------------|

 

 

___B5_(x244xx)_______G5_(355xxx)_________A5_(x022xx)________E5_(022xxx)______

 

e|---------------------------------------------------------------------------|

B|-9--10-12---10h12p10p9h10-------------------------------------------9------|

G|--------------------------11--9h11p9p7h9---p7h9--------------7h9h11---9~~~-|

D|---------------------------------------------------------------------------|

A|---------------------------------------------------------------------------|

E|---------------------------------------------------------------------------|

 

 

Part 3: Changes to a 4/4 rhythm. Strum freely..

 

 

___G_(3x0003)_______________________F_(1333211)_C_(x32010)_________

      "The radio    still plays the same tune..."

e|---3------------------------------|-1-----------0------------------|

B|---0------------------------------|-1-----------1------------------|

G|---0------------------------------|-2-----------0---------------0--|

D|---0------------------------------|-3-----------2-----------0h2----|

A|---x------------------------------|-3-----------3------------------|

E|-2-3------------------------------|-1------------------------------|

 

 

___G_(3x0003)____________________Fsus2_(133010)_C_(x32010)_________

       "The window watches the      hill..."

e|-3------------------------------|-0-----------0------------------|

B|-0------------------------------|-1-----------1------------------|

G|-0------------------------------|-0-----------0---------------0--|

D|-0------------------------------|-3-----------2-----------0h2----|

A|-x------------------------------|-3-----------3------------------|

E|-3------------------------------|-1------------------------------|

 

 

Repeat Part 2 to end.

 

Words and music by Bill Nelson

© Bill Nelson 2020

  • Facebook Social Icon
  • Twitter Social Icon