Dream Ships Set Sail

-------------------------------------------------------------------------------

Dream Ships Set Sail - Bill Nelson

-------------------------------------------------------------------------------

 

Tabbed by twilightcapers

Song from the Blue Moons And Laughing Guitars album.

 

Tuning: EADGBe

 

| /  slide up

| \  slide down

| h  hammer-on

| p  pull-off

| ~  vibrato or sustain

| +  harmonic

| x  Mute note

| PM palm mute

 

Intro:

 

 

___F#_______________________________Ebm_____________B_____________

 (First guitar...)

e|-6------------------------------|-6---------------7-------------|

B|-7------------------------------|-7---------------7-------------|

G|-6------------------------------|-8---------------8-------------|

D|-8------------------------------|-8---------------9-------------|

A|-9------------------------------|-6---------------9-------------|

E|--------------------------------|-----------------7-------------|

 (Second guitar...)

e|-9-------9-------9-------9-------9--------9-------9-------9-----|

B|----------------------------------------------------------------|

G|-------11------11------11------11-------11------11------11-----11-

D|-----11------11------11------11-------11------11------11-----11--

A|---9-------9-------9-------9--------9-------9-------9------9----|

E|----------------------------------------------------------------|

 

 

 

Repeat until...

 

 

Verse: (strum freely...)

 

 

___F#_______________________________B______________________________

     " a boy from the valley              a kid from the clouds... "

e|-6------------------------------|-7------------------------------|

B|-7------------------------------|-7------------------------------|

G|-6------------------------------|-8------------------------------|

D|-8------------------------------|-9------------------------------|

A|-9------------------------------|-9------------------------------|

E|--------------------------------|-7------------------------------|

 

 

___Ebm_____________C#________(sus4)_B______________________________

  " A voice in the silence                a song without sound... "

e|-6---------------9----------9--9--7------------------------------|

B|-7---------------9----------9--9--7------------------------------|

G|-8---------------10---------11-10-8------------------------------|

D|-8---------------11---------11-11-9------------------------------|

A|-6---------------11---------x--11-9------------------------------|

E|-----------------9----------9--9--7------------------------------|

 

 

___F#_______________________________B______________________________

       " a voice in the shadows           a smile in the dark... "

e|-6------------------------------|-7------------------------------|

B|-7------------------------------|-7------------------------------|

G|-6------------------------------|-8------------------------------|

D|-8------------------------------|-9------------------------------|

A|-9------------------------------|-9------------------------------|

E|--------------------------------|-7------------------------------|

 

 

___Ebm_____________C#_______(sus4)__B______________________________

   " she's speaking in whispers       she's lighting my spark... "

e|-6---------------9----------9--9--7------------------------------|

B|-7---------------9----------9--9--7------------------------------|

G|-8---------------10---------11-10-8------------------------------|

D|-8---------------11---------11-11-9------------------------------|

A|-6---------------11---------x--11-9------------------------------|

E|-----------------9----------9--9--7------------------------------|

 

 

 

Chorus:

 

 

___F#______________C#_______________B______________________________

         " Dream   ships    set     sail... "

e|-6---------------9--------------|-7------------------------------|

B|-7---------------9--------------|-7------------------------------|

G|-6---------------10-------------|-8------------------------------|

D|-8---------------11-------------|-9------------------------------|

A|-9---------------11-------------|-9------------------------------|

E|-----------------9--------------|-7------------------------------|

 

 

___F#______________C#_______________B______________________________

         " Dream   ships    set     sail... "

e|-6---------------9--------------|-7------------------------------|

B|-7---------------9--------------|-7------------------------------|

G|-6---------------10-------------|-8------------------------------|

D|-8---------------11-------------|-9------------------------------|

A|-9---------------11-------------|-9------------------------------|

E|-----------------9--------------|-7------------------------------|

 

 

Repeat verse.

 

Repeat chorus.

 

 

Chord sequence during guitar solo:

 

 

___Ebm______________________________B______________________________

 

e|-6------------------------------|-7------------------------------|

B|-7------------------------------|-7------------------------------|

G|-8------------------------------|-8------------------------------|

D|-8------------------------------|-9------------------------------|

A|-6------------------------------|-9------------------------------|

E|--------------------------------|-7------------------------------|

 

 

___C#_______________________________________________________________

 

e|-9------------------------------|--------------------------------|

B|-9------------------------------|--------------------------------|

G|-10-----------------------------|--------------------------------|

D|-11-----------------------------|--------------------------------|

A|-11-----------------------------|--------------------------------|

E|-9------------------------------|--------------------------------|

 

 

 

Word & Music by Bill Nelson

© Bill Nelson 2019

  • Facebook Social Icon
  • Twitter Social Icon