Contemplation

-------------------------------------------------------------------------------

Contemplation - Bill Nelson

-------------------------------------------------------------------------------

 

Tabbed by twilightcapers

 

A nice simple song from the great Bill Nelson, taken from Getting The Holy Ghost Across, or On A Blue Wing as it was known in the USA. 

 

Tuning: EADGBe

 

| /  slide up

| \  slide down

| h  hammer-on

| p  pull-off

| ~  vibrato

| +  harmonic

| x  Mute note

 

 

 

Intro: 

 

___Asus2____________________________D/A____________________________

 

e|-0------------------------------|-0------------------------------|

B|-0------------------------------|-3------------------------------|

G|-4------------------------------|-2------------------------------|

D|-2------------------------------|-4------------------------------|

A|-0------------------------------|-0------------------------------|

E|--------------------------------|--------------------------------|

 

 | 1 - & - 2 - & - 3 - & - 4 - & -| 1 - & - 2 - & - 3 - & - 4 - & -|

 

 

 

Verse: (strum guitar freely...)

 

 

" I'm a man of... "

 

 

___Asus2____________________________D/A____________________________

 " vision...                                    and I like what I... "

e|-0------------------------------|-0------------------------------|

B|-0------------------------------|-3------------------------------|

G|-4------------------------------|-2------------------------------|

D|-2------------------------------|-4------------------------------|

A|-0------------------------------|-0------------------------------|

E|--------------------------------|--------------------------------|

 

 

 

___Asus2____________________________D/A____________________________

 " see...                                                       in a... "

e|-0------------------------------|-0------------------------------|

B|-0------------------------------|-3------------------------------|

G|-4------------------------------|-2------------------------------|

D|-2------------------------------|-4------------------------------|

A|-0------------------------------|-0------------------------------|

E|--------------------------------|--------------------------------|

 

 

___Asus2____________________________D/A____________________________

 " moment...                   or   two                     we could... "

e|-0------------------------------|-0------------------------------|

B|-0------------------------------|-3------------------------------|

G|-4------------------------------|-2------------------------------|

D|-2------------------------------|-4------------------------------|

A|-0------------------------------|-0------------------------------|

E|--------------------------------|--------------------------------|

 

 

___Asus2____________________________D/A____________________________

 " be... "

e|-0------------------------------|-0------------------------------|

B|-0------------------------------|-3------------------------------|

G|-4------------------------------|-2------------------------------|

D|-2------------------------------|-4------------------------------|

A|-0------------------------------|-0------------------------------|

E|--------------------------------|--------------------------------|

 

 

___Asus2____________________________D/A____________________________

 " Face  to    face...    at  the  edge  of    the city..."

e|-0------------------------------|-0------------------------------|

B|-0------------------------------|-3------------------------------|

G|-4------------------------------|-2------------------------------|

D|-2------------------------------|-4------------------------------|

A|-0------------------------------|-0------------------------------|

E|--------------------------------|--------------------------------|

 

 

 

Repeat chord sequence throughout.

 

 

Words & Music by Bill Nelson.

© Bill Nelson 2019

  • Facebook Social Icon
  • Twitter Social Icon