Bring Back The Spark

-------------------------------------------------------------------------------

Bring Back The Spark - Be Bop Deluxe

-------------------------------------------------------------------------------

 

Tabbed by twilightcapers

 

Tuning: EADGBe

 

|x mute note

|^ quarter tone bend

|b bend

|h hammer-on

|p pull-off

|/ slide up

|\ slide down

|~ vibrato

|+ harmonic

 

 

Intro: acoustic and electric guitars 

 

 

___B_______________________________________________E______________

(Intro - acoustic guitar)

e|-------------------------------------------------0-------0------|

B|-4-------4---4-------4---4-------4---4-------4---0-------0------|

G|-4-------4---4-------4---4-------4---4-------4---1-------1------|

D|-4-------4---4-------4---4-------4---4-------4---2-------2------|

A|-2-------2---2-------2---2-------2---2-------2---2-------2------|

E|-------------------------------------------------0-------0------|

 

___F#______________________________________________E______________

 

e|-2-------2---2-------2---2-------2---2-------2---0-------0------|

B|-2-------2---2-------2---2-------2---2-------2---0-------0------|

G|-3-------3---3-------3---3-------3---3-------3---1-------1------|

D|-4-------4---4-------4---4-------4---4-------4---2-------2------|

A|-4-------4---4-------4---4-------4---4-------4---2-------2------|

E|-2-------2---2-------2---2-------2---2-------2---0-------0------|

 

 

_________B_____________________E_______F#______________________E__________

(Intro - lead guitar)

e|-----|------------------------------------------------------------------|

B|-----|-------------------------------------------------------4----------|

G|-----|-4-----4-----6b8-6p4---4---------------------------4h6---6p4------|

D|-4h6-|----6-----6----------6-----6p4------------------4h6----------4\---|

A|-----|--------------------------------5^p2h4p2---2-4/6------------------|

E|-----|-----------------------------------------4------------------------|

 

 

___B_______________________E___________F#_______________________E_________

 

e|------------------------------------------------------------------------|

B|------------------------------------------------------------------------|

G|--------------------------------------------------4h6b8b6p4---4-6b8b6~~~|

D|----------------------------------------------4h6-----------6-----------|

A|-2-------2---2---4b6-4p2----2------------2h4/6--------------------------|

E|-----4-------------------4------4----2h4--------------------------------|

 

 

Verse: (strum freely on acoustic)

 

___F#m_____________________________________________F#m_____E______

"..............................I've been up all night..........."

e|-2-----------------------------------------------2-------0------|

B|-2-----------------------------------------------2-------0------|

G|-2-----------------------------------------------2-------1------|

D|-4-----------------------------------------------4-------2------|

A|-4-----------------------------------------------4-------2------|

E|-2-----------------------------------------------2-------0------|

 

 

___D_______________________________________________D_______E______

".............................It's been down so long............"

e|-2-----------------------------------------------2-------0------|

B|-3-----------------------------------------------3-------0------|

G|-2-----------------------------------------------2-------1------|

D|-0-----------------------------------------------0-------2------|

A|---------------------------------------------------------2------|

E|---------------------------------------------------------0------|

 

___F#m_____________________________________________F#m_____E______

"...................................there's a fire in......my..."

e|-2-----------------------------------------------2-------0------|

B|-2-----------------------------------------------2-------0------|

G|-2-----------------------------------------------2-------1------|

D|-4-----------------------------------------------4-------2------|

A|-4-----------------------------------------------4-------2------|

E|-2-----------------------------------------------2-------0------|

 

___A_______________________E_______A_______________A_______E______

"..heart."

e|-0-------0---0-----------0-------0---------------0-------0------|

B|-2-------2---2-----------0-------2---------------2-------0------|

G|-2-------2---2-----------1-------2---------------2-------1------|

D|-2-------2---2-----------2-------2---------------2-------2------|

A|-0-------0---0-----------2-------0---------------0-------2------|

E|-------------------------0-------------------------------0------|

 

Play verse twice, then: ("You can help bring back the...)

 

 

___A_______________________E_______A____

"..spark................................bring back the..."

e|-0-------0---0-----------0-------0------------------------------|

B|-2-------2---2-----------0-------2------------------------------|

G|-2-------2---2-----------1-------2------------------------------|

D|-2-------2---2-----------2-------2------------------------------|

A|-0-------0---0-----------2-------0------------------------------|

E|-------------------------0--------------------------------------|

 

 

Chorus:

 

___D_______________A_______________G___________D/F#________A______

"..sp.....a........rk..............you...can...bring..it...back."

e|-2---------------0---x-x---x-x-|-3-----------2-----------0------|

B|-3---------------2---x-x---x-x-|-0-----------3-----------2------|

G|-2---------------2---x-x---x-x-|-0-----------2-----------2------|

D|-0---------------2---x-x---x-x-|-0-----------0-----------2------|

A|-----------------0---x-x---x-x-|-2-----------x-----------0------|

E|---------------------x-x---x-x-|-3-----------2------------------|

 

("Bring back the...")

 

___D_______________A_______________G___________F#m________________

"..sp.....a........rk..............you...can...bring it..."

e|-2---------------0---x-x---x-x-|-3-----------2------------------|

B|-3---------------2---x-x---x-x-|-0-----------2------------------|

G|-2---------------2---x-x---x-x-|-0-----------2------------------|

D|-0---------------2---x-x---x-x-|-0-----------4------------------|

A|-----------------0---x-x---x-x-|-2-----------4------------------|

E|---------------------x-x---x-x-|-3-----------2------------------|

 

 

___D________________________________Dmaj7___________________________

"..back..........................."

e|-5-------5---5-------5---5------|-5-------5---5--------5---5------|

B|-7-------7---7-------7---7------|-7-------7---7--------7---7------|

G|-7-------7---7-------7---7------|-6-------6---6--------6---6------|

D|-0-------0---0-------0---0------|-0-------0---0--------0---0------|

A|--------------------------------|---------------------------------|

E|--------------------------------|---------------------------------|

 

 

___Em/D_____________________________Gm/D____________________________

 

e|-3-------3---3-------3---3------|-3-------3---3--------3---3------|

B|-5-------5---5-------5---5------|-3-------3---3--------3---3------|

G|-4-------4---4-------4---4------|-3-------3---3--------3---3------|

D|-0-------0---0-------0---0------|-0-------0---0--------0---0------|

A|--------------------------------|---------------------------------|

E|--------------------------------|---------------------------------|

 

 

___D________________________________Dmaj7___________________________

 

e|-5-------5---5-------5---5------|-5-------5---5--------5---5------|

B|-7-------7---7-------7---7------|-7-------7---7--------7---7------|

G|-7-------7---7-------7---7------|-6-------6---6--------6---6------|

D|-0-------0---0-------0---0------|-0-------0---0--------0---0------|

A|--------------------------------|---------------------------------|

E|--------------------------------|---------------------------------|

 

 

___Em/D_____________________________Gm/D____________________A___E___

 

e|-3-------3---3-------3---3------|-3-----------------------0---0---|

B|-5-------5---5-------5---5------|-3-----------------------2---0---|

G|-4-------4---4-------4---4------|-3-----------------------2---1---|

D|-0-------0---0-------0---0------|-0-----------------------2---2---|

A|--------------------------------|-------------------------0---2---|

E|--------------------------------|-----------------------------0---|

 

 

Repeat from verse, inc chorus,then:

 

___D________________________

"..back........................"

e|-2-----2-----2-----2-----2---|

B|-3-----3-----3-----3-----3---|

G|-2-----2-----2-----2-----2---|

D|-0-----0-----0-----0-----0---|

A|-----------------------------|

E|-----------------------------|

 

 

___D________________________________Dmaj7___________________________

".........................there's a star in the sky in the..."

e|-5-------5---5-------5---5------|-5-------5---5--------5---5------|

B|-7-------7---7-------7---7------|-7-------7---7--------7---7------|

G|-7-------7---7-------7---7------|-6-------6---6--------6---6------|

D|-0-------0---0-------0---0------|-0-------0---0--------0---0------|

A|--------------------------------|---------------------------------|

E|--------------------------------|---------------------------------|

 

___Em/D_____________________________Gm/D____________________________

"..mor..............................ning..." (etc)

e|-3-------3---3-------3---3------|-3-------3---3--------3---3------|

B|-5-------5---5-------5---5------|-3-------3---3--------3---3------|

G|-4-------4---4-------4---4------|-3-------3---3--------3---3------|

D|-0-------0---0-------0---0------|-0-------0---0--------0---0------|

A|--------------------------------|---------------------------------|

E|--------------------------------|---------------------------------|

 

 

___G________________________________Gmaj7/F#________________________

"......................They say the end.....of the.......world is..." 

e|---------3---3-------3---3------|---------2---2--------2---2------|

B|---------3---3-------3---3------|---------3---3--------3---3------|

G|---------0---0-------0---0------|---------0---0--------0---0------|

D|---------0---0-------0---0------|---------0---0--------0---0------|

A|--------------------------------|---------------------------------|

E|-3------------------------------|-2-------------------------------|

 

___C________________________________C_______________F_______________

"..near."

e|---------0---0-------0---0------|---------------------------------|

B|---------1---1-------1---1------|---------------------------------|

G|---------0---0-------0---0------|---------------------------------|

D|---------2---2-------2---2------|---------------------------------|

A|-3------------------------------|-3---2---3---2-------------------|

E|--------------------------------|-----------------1---0---1---0---|

 

 

___G_______________________________Gmaj7/F#_________________________

".......................They say....no-one..survives.....but..."

e|---------3---3-------3---3------|---------2---2--------2---2------|

B|---------3---3-------3---3------|---------3---3--------3---3------|

G|---------0---0-------0---0------|---------0---0--------0---0------|

D|---------0---0-------0---0------|---------0---0--------0---0------|

A|--------------------------------|---------------------------------|

E|-3------------------------------|-2-------------------------------|

 

 

___A____

"..have no fear it's not this year."

e|--------------------------------|----------------------------------|

B|--------------------------------|----------------------------------|

G|-2------------------------------|----------------------------------|

D|-2------------------------------|----------------------------------|

A|-0------------------------------|--------------------------0---2---|

E|--------------------------------|----------------------------------|

 

 

___C___________G___________F____________Am__________Em______F________

 

e|-0-----------3-----------1------|-----0-----------0-------1--------|

B|-1-----------0-----------1------|-----1-----------0-------1--------|

G|-0-----------0-----------2------|-----2-----------0-------2--------|

D|-2-----------0-----------3------|-----2-----------2-------3--------|

A|-3-----------2-----------3------|-----0-----------2-------3--------|

E|-------------3-----------1------|-----------------0-------1--------|

 

 

___G______________________________________________________

 

e|-3-----------3-----------3------|-----3-----------3----------------|

B|-0-----------0-----------0------|-----0-----------0----------------|

G|-0-----------0-----------0------|-----0-----------0----------4h6---|

D|-0-----------0-----------0------|-----0-----------0----------------|

A|-x-----------0-----------2------|----------------------------------|

E|-3-----------3-----------3------|-----3-----------3----------------|

 

 

Repeat from intro. Guitar solo to end.

 

Words & Music by Bill Nelson

© Bill Nelson 2020

  • Facebook Social Icon
  • Twitter Social Icon