Between The Worlds

-------------------------------------------------------------------------------

Between The Worlds - Be Bop Deluxe

-------------------------------------------------------------------------------

 

Tabbed by twilightcapers

First track from  Futurama , another song written on piano, lots of guitar

too, of course!

 

Tuning: EADGBe

 

| /  slide up

| \  slide down

| s  slur (very quick slide with emphasis on the last note)

| h  hammer-on

| p  pull-off

| b  bend

| r  relax bend

| pb pre-bend note to pitch

| ~  vibrato

| +  harmonic

| x  Mute note

|(0) optional note

 

 

 

Intro:

 

 

___Em__________C#m__________________Em_________C#m_________________

 

e|--------------------------------|--------------------------------|

B|-----------------------7-8~~~---|-----------------------7-8~~----|

G|-------------6~~~--7-9----------|-------------6~~~--7-9----------|

D|--------------------------------|--------------------------------|

A|(7-7)-(7-7)---------------------|(7-7)-(7-7)---------------------|

E|------------(9)-----------------|------------(9)-----------------|

 

 | 1 - & - 2 - & - 3 - & - 4 - & -| 1 - & - 2 - & - 3 - & - 4 - & -|

 

 

___F_____Eb____Dm___________________F_____Eb___Dm__________________

 

e|--------------------------------|--------------------------------|

B|-----------------------8-10~~~--|-----------------------8-10~~~--|

G|-------------7~~~--9-10---------|-------------7~~~--9-10---------|

D|--------------------------------|--------------------------------|

A|(8)-----------------------------|(8)-----------------------------|

E|------(11)--(10)----------------|------(11)--(10)----------------|

 

 

 

Repeat, then, lots of guitars!  

 

 

 

___Bb______________________________________________________________

Bassline...

e|--------------------------------|--------------------------------|

B|--------------------------------|--------------------------------|

G|--------------------------------|--------------------------------|

D|-----8-------8-------8-------8--|-----8-------8-------8-------8--|

A|--------------------------------|--------------------------------|

E|-6-------6-------6-------6------|-6-------6-------6-------6------|

 

 | 1 - & - 2 - & - 3 - & - 4 - & -| 1 - & - 2 - & - 3 - & - 4 - & -|

 

 

___Bb______________________________________________________________

Guitar one...

e|--------------------------------|--------------------------------|

B|--------------------------------|--------------------------------|

G|-3-3---3-3---3-3---3-3---3---3~~~-3-3---3-3---3-3---3-3---3---3~~~

D|--------------------------------|--------------------------------|

A|--------------------------------|--------------------------------|

E|--------------------------------|--------------------------------|

 

 

___Bb______________________________________________________________

Guitar two...

e|-18-18--18-18--18-18--18-18--18~~18~~---- etc -------------------|

B|--------------------------------|--------------------------------|

G|--------------------------------|--------------------------------|

D|--------------------------------|--------------------------------|

A|--------------------------------|--------------------------------|

E|--------------------------------|--------------------------------|

 

 

There is another guitar wailing a high Bb note with whammy bar in

the background.

 

 

Melody: (harmony guitar in brackets...)

 

___Ab____Eb____Db__________Eb_______Ab____Eb____Db__________Eb_____

00:28

e|--------------------------------|--------------------------------|

B|--------------------------------|--------------------------------|

G|-5-----3-----1~~~----1---3------|-5-----3-----1~~~----1---3------|

D|(6)---(5)---(3)~~---(3)-(5)-----|(6)---(5)---(3)~~---(3)-(5)-----|

A|--------------------------------|--------------------------------|

E|--------------------------------|--------------------------------|

 

 

___F___________________________E____F______________________________

 

e|--------------------------------|--------------------------------|

B|--------------------------------|--------------------------------|

G|-2~~~~~~~~~~~~~~~~~~~~~~~----1~~~/2~~~~~~~~~~~~~~~~~~~~~~~-------|

D|(3)~~~~~~~~~~~~~~~~~~~~~~---(2~~~/3)~~~~~~~~~~~~~~~~~~~~~~-------|

A|--------------------------------|--------------------------------|

E|--------------------------------|--------------------------------|

 

 

Repeat melody then:

 

 

________G______________________________________________________________

 

e|----|-------------------------------|--------------------------------|

B|----|-------------------------------|--------------------------------|

G|-3~~~/4~~~~~~~~~~~~~~~~~~~~~~----3~~~/4~~~~~~~~~~~~~~~~~~~~~~~-------|

D|(4~~~/5~~~~~~~~~~~~~~~~~~~~~~---(4~~~/5)~~~~~~~~~~~~~~~~~~~~~~-------|

A|----|-------------------------------|--------------------------------|

E|----|-------------------------------|--------------------------------|

 

 

 

@ 00:44, two lead guitars...

 

 

Guitar one...

 

___Am_(577555)_____________________________________________________

00:44

e|--------------------------------|--------------------------------|

B|--------------------------------|--------------------------------|

G|-----------------7b9~~~~r7~~p5~~~h7~~~~~~~5---5------------------|

D|--------------------------------|-----------7-----7-5------------|

A|--------------------------------|---------------------7--\6-5-3--|

E|--------------------------------|--------------------------------|

 

 | 1 - & - 2 - & - 3 - & - 4 - & -| 1 - & - 2 - & - 3 - & - 4 - & -|

 

 

___Am_(577555)_____________________________________________________

 

e|--------------------------------|--------------------------------|---

B|--------------------------------|--------------------------------|---

G|--------------------------------|-----------------7b8~~~~r7~~~5--|-7~

D|--------------------------------|-------5-----7------------------|---

A|-5~~b6~~r5~~~3-------------------/7------------------------------|---

E|-----------------3---------------/5------------------------------|---

 

 

Guitar two...

 

___Am______________________________________________________________

00:44               (pb = pre-bend)

e|--------------------------------|-------pb12~r10--8---10------8--|

B|--------------------------------|-------------------------10-----|

G|--------------------------------|--------------------------------|

D|--------------------------------|--------------------------------|

A|--------------------------------|--------------------------------|

E|--------------------------------|--------------------------------|

 

 

___Am__________________________________________________________________

          (s = slur, very rapid slide sound like one note)

e|--------------------------------|--------------------------------|---

B|-8---10----------5--------------|--------------------------------|---

G|--------9s7--5-------5---7------|-5------------------------------|---

D|-----------------------------7--|-----5---7---5------------------|---

A|--------------------------------|----------------7s5--5---5p3----|---

E|--------------------------------|-----------------------------3--|-5~

 

 

Verse:

 

 

___Am_(577555)_____________________________________________________

 " Between the  worlds     are      pearls  around           your... "

e|--------------------------------|--------------------------------|

B|--------------------------------|--------------------------------|

G|--------------------------------|--------------------------------|

D|--------------------------------|--------------------------------|

A|--------------------------------|--------------------------------|

E|--------------------------------|--------------------------------|

 

 

___G_(355xxx)______________________________________________________

 " lily white neck... "

e|--------------------------------|--------------------------------|

B|--------------------------------|--------------------------------|

G|--------------------------------|--------------------------------|

D|--------------------------------|-----------------5~~~-----------|

A|---------------------5~~~/\-----|-------------5------------------|

E|--------------------------------|-7---6---7----------------------|

 

 

Repeat verse: 

 

 

Pre-chorus:

 

 

___F_(133211)______________________________________________________

" I know   my  way      'round your throat like a   knife... "

 

 

___Dm_(x57765)____________________________________________________

" I'll silver  and steal   you   away  to       my island       of... "

 

 

___Am______________________________________________________________

 " sea jade,,, "

e|-0------------------------------|--------------------------------|

B|-1------------------------------|--------------------------------|

G|-2------------------------------|--------------------------------|

D|-2------------------------------|--------------------------------|

A|-0------------------------------|--------------------------------|

E|--------------------------------|--------------------------------|

 

 

 

___Esus4____________________________E______________________________

 " ah, crazy... "

e|-0-----------0-----------0------|-0------12~~~~~~~~~~~~~~~~~~~~\-|

B|-0-----------0-----------0------|-0------15b17~~~~~~~~~~~~~~~~~\-|

G|-2-----------2-----------2------|-1------------------------------|

D|-2-----------2-----------2------|-2------------------------------|

A|-2-----------2-----------2------|-2------------------------------|

E|-0-----------0-----------0------|-0------------------------------|

 

 

 

Chorus:

 

 

___C________________________________________________G_______F______

 " Life...                          is  a           love -  af... "

e|-0---0---0---0---0---0---0---0--|-0---0-----------3-------1------|

B|-1---1---1---1---1---1---1---1--|-1---1-----------0-------1------|

G|-0---0---0---0---0---0---0---0--|-0---0-----------0-------2------|

D|-2---2---2---2---2---2---2---2--|-2---2-----------0-------3------|

A|-3---3---3---3---3---3---3---3--|-3---3-----------2-------3------|

E|--------------------------------|-----------------3-------1------|

 

___C________________________________________________G_______F______

 " fair...                                all   the girls   de ... "

e|-0---0---0---0---0---0---0---0--|-0---0-----------3-------1------|

B|-1---1---1---1---1---1---1---1--|-1---1-----------0-------1------|

G|-0---0---0---0---0---0---0---0--|-0---0-----------0-------2------|

D|-2---2---2---2---2---2---2---2--|-2---2-----------0-------3------|

A|-3---3---3---3---3---3---3---3--|-3---3-----------2-------3------|

E|--------------------------------|-----------------3-------1------|

 

 

___Am______F_______G____________________________Am__G______________

 " clare   it      so...                       they know... "

e|-0-------1-------3--------------|-------------0---3--------------|

B|-1-------1-------0--------------|-------------1---0--------------|

G|-2-------2-------0--------------|-------------2---0--------------|

D|-2-------3-------0--------------|-------------2---0--------------|

A|-0-------3-------2--------------|-------------0---x--------------|

E|---------1-------3--------------|-----------------3--------------|

 

 

Repeat chorus:

 

 

Riff:

 

 

______G_______________________________________________________________

01:40

e|---|----3--------------------------|--------------------------------|

B|---|--------3----------------------|--------------------------------|

G|---|------------4------------------|--------------------------------|

D|---|-5--------------5--------------|--------------------------------|

A|-5-|--------------------5---3---2h3p2-------------------------------|

E|---|-------------------------------|-3~~~--------2---3h5p3p2h3------|

 

 

Repeat...

 

 

______Am______________________________________________________________

 

e|---|----5--------------------------|--------------------------------|

B|---|--------5----------------------|--------------------------------|

G|---|------------5------------------|--------------------------------|

D|---|-7--------------7--------------|--------------------------------|

A|-7-|--------------------7----------|--------------------------------|

E|---|------------------------8---7--|-5~~~--------3---5--------------|

 

 

Repeat...

 

 

___F#m_____________________________________________________________

01:53

e|--------------------------------|--------------------------------|

B|--------------------------------|--------------------------------|

G|--------------------------------|--------------------------------|

D|--------------------------------|-4-----------4-----------4------|

A|--------------------------------|--------------------------------|

E|-2-----------2-----------2------|--------------------------------|

 

 

 

Repeat verse:

 

 

Repeat pre-chorus and chorus, until...

 

 

___F#m_____________________________________________________________

02:58

e|--------------------------------|--------------------------------|

B|--------------------------------|--------------------------------|

G|--------------------------------|--------------------------------|

D|--------------------------------|-4------------------------------|

A|--------------------------------|--------------------------------|

E|-2-----------2-----------2------|--------------------------------|

 

 

Repeat intro.

 

Ending:

 

 

___Bb______________________________________________________________

                   (reverse guitar solo...)

e|--------------------------------|--------------------------------|

B|--------------------------------|--------------------------------|

G|--------------------------------|--------------------------------|

D|-8------------------------------|--------------------------------|

A|-8------------------------------|--------------------------------|

E|-6------------------------------|--------------------------------|

 

 

 

___Bb______________________________________________________________

 

e|--------------------------------|--------------------------------|

B|--------------------------------|--------------------------------|

G|--------------------------------|--------------------------------|

D|-8-8-8-8-8----------------------|--------------------------------|

A|-8-8-8-8-8----------------------|--------------------------------|

E|-6-6-6-6-6----------------------|--------------------------------|

 

 

 

Words & music by Bill Nelson

 

 

 

© Bill Nelson 2020

  • Facebook Social Icon
  • Twitter Social Icon