A Better Home In The Phantom Zone

-------------------------------------------------------------------------------

A Better Home In The Phantom Zone - Red Noise

-------------------------------------------------------------------------------

 

Tabbed by: twilightcapers

 

Tuning: EADGBe

 

| x  Mute note

| b  bend

|(02:10) time marker

 

From the Sound On Sound album.  You may need to tune your guitar slightly sharp 

to play this one, due to tape speed variation or some such studio trickery.  

 

 

Intro: riff 1

 

___________E_______D5___________________G5__A5______G5__E5_________

 

e|--------------------------------|--------------------------------|

B|--------------------------------|--------------------------------|

G|-x---x---9-------7-------x---x--|-x---0---2-------0-------x---x--|

D|-x---x---9-------7-------x---x--|-x---0---2-------0---2---x---x--|

A|-x---x---7-------5-------x---x--|-x---x---0-------x---2---x---x--|

E|-0---0-------0-------0---0---0--|-0---3-----------3---0---0---0--|

 

 | 1 - & - 2 - & - 3 - & - 4 - & -| 1 - & - 2 - & - 3 - & - 4 - & -|

 

 

Verse:

 

___E_______________D5_______________Bb5____________________________

"Your homes are all-electric and your dreams...        are built to..."

e|--------------------------------|--------------------------------|

B|--------------------------------|--------------------------------|

G|-9---------------7--------------|--------------------------------|

D|-9---------------7--------------|-8-------8---8---8---8---8---8--|

A|-7---------------5--------------|-8-------8---8---8---8---8---8--|

E|--------------------------------|-6-------6---6---6---6---6---6--|

 

 | 1 - & - 2 - & - 3 - & - 4 - & -| 1 - & - 2 - & - 3 - & - 4 - & -|

 

 

___________E_______D5___________________G5__A5______G5__E5_________

  "last..."

e|--------------------------------|--------------------------------|

B|--------------------------------|--------------------------------|

G|-x---x---9-------7-------x---x--|-x---0---2-------0-------x---x--|

D|-x---x---9-------7-------x---x--|-x---0---2-------0---2---x---x--|

A|-x---x---7-------5-------x---x--|-x---x---0-------x---2---x---x--|

E|-0---0-------0-------0---0---0--|-0---3-----------3---0---0---0--|

 

 

Until...

___________E_______D5___________________G5__A5______G5__E5_________

                                                           "Build a..."

e|--------------------------------|--------------------------------|

B|--------------------------------|--------------------------------|

G|-x---x---9-------7-------x---x--|-x---0---2-------0--------------|

D|-x---x---9-------7-------x---x--|-x---0---2-------0-------6---5--|

A|-x---x---7-------5-------x---x--|-x---x---0-------x--------------|

E|-0---0-------0-------0---0---0--|-0---3-----------3---0----------|

 

 

Chorus: (00:35)

 

___Abm_____________________________________________________________

  "Bet      -      ter              home...                  in the..."

e|--------------------------------|--------------------------------|

B|--------------------------------|--------------------------7---6-|

G|--------------------------------|--------------------------------|

D|-6---------------8--------------|-9------------------------------|

A|--------------------------------|--------------------------------|

E|--------------------------------|--------------------------------|

 

 

___Ebm_____________________________________________________________

  "Phan       -        tom     zone...                      Build a..."

e|--------------------------------|--------------------------------|

B|--------------------------------|--------------------------------|

G|-8------------------------------|--------------------------------|

D|---------------------8----------|-------------------------6---5--|

A|-----------------------------9--|--------------------------------|

E|--------------------------------|--------------------------------|

 

 

___Abm_____________________________________________________________

  "bet      -      ter              home    in        the..."

e|--------------------------------|--------------------------------|

B|--------------------------------|---------7---------6------------|

G|--------------------------------|--------------------------------|

D|-6---------------8--------------|-9------------------------------|

A|--------------------------------|--------------------------------|

E|--------------------------------|--------------------------------|

 

 

___Ebm_____________________________________________________________

  "Phan          -         tom zone"

e|-----------------------------6--|-----------------------------6--|

B|--------------------------------|--------------------------------|

G|-8-----------------------5------|--------------------------------|

D|--------------------------------|--------------------------------|

A|--------------------------------|--------------------------------|

E|--------------------------------|--------------------------------|

 

 

Riff 2:

 

___F/A_____________________________________________________________

(00:47)

e|-5-----------6---8-----------6--|-5---------------------------5--|

B|--------------------------------|-------6------------------------|

G|--------------------------------|---------5----------------------|

D|--------------------------------|--------------------------------|

A|--------------------------------|--------------------------------|

E|--------------------------------|--------------------------------|

 

 | 1 - & - 2 - & - 3 - & - 4 - & -| 1 - & - 2 - & - 3 - & - 4 - & -|

 

 

___E/Ab____________________________________________________________

(00:50)

e|-4-----------5---7-----------5--|-4---------------4-----------4--|

B|--------------------------------|---5-4-------4-5----------------|

G|--------------------------------|-------6-4-6--------------------|

D|--------------------------------|--------------------------------|

A|--------------------------------|--------------------------------|

E|--------------------------------|--------------------------------|

 

 

___G_______________________________________________________________

(00:53)

e|-3------------------------------|--------------------------------|

B|-------4-----3------------------|--------------------------------|

G|-----------------5-----4--------|--------------------------------|

D|-----------------------------6--|-5------------------------------|

A|--------------------------------|-------6-----5---3-----2--------|

E|--------------------------------|-----------------------------4--|

 

 

___G_______________________________________________________________

 

e|--------------------------------|--------------------------------|

B|--------------------------------|--------------------------------|

G|--------------------------------|--------------------------------|

D|---------5---5---5---5---5---5--|-5---5---5---5---5---5---5------|

A|---------5---5---5---5---5---5--|-5---5---5---5---5---5---5------|

E|-3-------3---3---3---3---3---3--|-3---3---3---3---3---3---3------|

 

 

Middle section: (some variation of rhythm guitar throughout)

 

___F_______________________________________________________________

  "Read the papers, light the tapers, worship with the  news    at..."

e|--------------------------------|--------------------------------|

B|-1------------------------------|--------------------------------|

G|-2------------------------------|--------------------------------|

D|-3------------------------------|--------------------------------|

A|-3------------------------------|--------------------------------|

E|-1------------------------------|--------------------------------|

 

___G_______________________________________________________________

  "ten..."

e|--------------------------------|--------------------------------|

B|--------------------------------|--------------------------------|

G|-4------------------------------|--------------------------------|

D|-5------------------------------|--------------------------------|

A|-5------------------------------|--------------------------------|

E|-3------------------------------|--------------------------------|

 

Repeat until:

 

___E5______________________________________________________________

       "You clothe your body in synthetics..."

e|--------------------------------|--------------------------------|

B|--------------------------------|--------------------------------|

G|--------------------------------|--------------------------------|

D|-2------------------------------|--------------------------------|

A|-2------------------------------|--------------------------------|

E|-0------------------------------|--------------------------------|

 

 

___D5______________________________________________________________

      "To celebrate some strange aesthetic..."

e|--------------------------------|--------------------------------|

B|--------------------------------|--------------------------------|

G|-7------------------------------|--------------------------------|

D|-7------------------------------|--------------------------------|

A|-5------------------------------|--------------------------------|

E|--------------------------------|--------------------------------|

 

___C5______________________________________________________________

      "Your tongue is locked and your lips are hermetically..."

e|--------------------------------|--------------------------------|

B|--------------------------------|--------------------------------|

G|-5------------------------------|--------------------------------|

D|-5------------------------------|--------------------------------|

A|-3------------------------------|--------------------------------|

E|--------------------------------|--------------------------------|

 

 

___B5______________________________________________________________

  "Sealed..."

e|--------------------------------|--------------------------------|

B|--------------------------------|--------------------------------|

G|--------------------------------|--------------------------------|

D|-9-------9---9---9---9---9---9--|-9---9---9---9---9---9---9---9--|

A|-9-------9---9---9---9---9---9--|-9---9---9---9---9---9---9---9--|

E|-7-------7---7---7---7---7---7--|-7---7---7---7---7---7---7---7--|

 

 

Repeat riff 1 @ 01:25

Repeat Verse

Repeat chorus and riff 2

 

Instrumental section: Guitar and Saxophone in unison 

 

___Ab_______________________________G______________________________

 (02:24)

e|--------------------------------|--------------------------------|

B|--------------------------------|--------------------------------|

G|--------------------------------|--------------------------------|

D|------------------------------6-|-5------------------------------|

A|-------------3---6---5---6------|---------5----------------------|

E|-4---3---4----------------------|-----------------------------3--|

 

 | 1 - & - 2 - & - 3 - & - 4 - & -| 1 - & - 2 - & - 3 - & - 4 - & -|

 

 

___Ab_______________________________G______________________________

 

e|--------------------------------|--------------------------------|

B|--------------------------------|--------------------------------|

G|------------------------------5-|-4---------------------------4--|

D|--------------------------------|---------5----------------------|

A|-------------3---6---5---6------|--------------------------------|

E|-4---3---4----------------------|--------------------------------|

 

 

___Gb_______________F_______________E7(b5)_________________________

 

e|--------------------------------|--------------------------------|

B|--------------------------------|--------------------------------|

G|-3-----------3---2-----------2--|-1------------------------------|

D|-------4---------------3--------|----2-0----------------0-2------|

A|--------------------------------|---------1-----------1-------1--|

E|--------------------------------|--------------------------------|

 

 

____________________________________Ab+5____________________________

 

e|--------------------------------|--------------------------------|

B|--------------------------------|-----------------1--------------|

G|-1-----------3------------------|-1---------------------1--------|

D|---2--0----------------0-2------|-------2---------------------2--|

A|---------1-----------1-------1--|-------------3------------------|

E|--------------------------------|--------------------------------|

 

 

___Ab+5_____________________________E______________________________

 

e|-----------------4--------------|--------------------------------|

B|-5---------------------5--------|--------------------------------|

G|-------5---------------------5--|-7b9~~~-------------------------|

D|-------------6------------------|--------------------------------|

A|--------------------------------|--------------------------------|

E|--------------------------------|--------------------------------|

 

 

Repeat riff 1 @ 02:42

Repeat verse @ 02:52

Repeat chorus @ 03:21

Repeat riff 2 @ 03:33

Repeat middle part @ 03:46

 

Ending: "In the..."

 

___________E_______D5___________________G5__A5______G5__E5_________

  "Phantom zone..."

e|--------------------------------|--------------------------------|

B|--------------------------------|--------------------------------|

G|-x---x---9-------7-------x---x--|-x---0---2-------0-------x---x--|

D|-x---x---9-------7-------x---x--|-x---0---2-------0---2---x---x--|

A|-x---x---7-------5-------x---x--|-x---x---0-------x---2---x---x--|

E|-0---0-------0-------0---0---0--|-0---3-----------3---0---0---0--|

 

 

Repeat until:

 

___________E_______D5___________________G5__A5______G5_____________

 

e|--------------------------------|--------------------------------|

B|--------------------------------|--------------------------------|

G|-x---x---9-------7-------x---x--|-x---0---2-------0--------------|

D|-x---x---9-------7-------x---x--|-x---0---2-------0--------------|

A|-x---x---7-------5-------x---x--|-x---x---0-------x--------------|

E|-0---0-------0-------0---0---0--|-0---3-----------3--------------|

 

 

Words and Music by Bill Nelson

© Bill Nelson 2020

  • Facebook Social Icon
  • Twitter Social Icon