Autosexual

-------------------------------------------------------------------------------

Autosexual - Be Bop Deluxe

-------------------------------------------------------------------------------

 

Tabbed by twilightcapers

Jam track from the Modern Music CD, originally on the 

"Best of/Rest of" compilation LP.  

 

Tuning: EADGBe

 

 

| /  slide up

| \  slide down

| s  very rapid slide, sounds like one note

| h  hammer-on

| p  pull-off

| ~  vibrato or sustain

| +  harmonic

| x  Mute note

| <  pick scrape

| b  bend

| r  relax bend

| pb pre-bend

| ^  quarter tone bend

| (x7678x) chord shape

 

 

Intro

___________________________________________________________________

 

e|~~~~~~~~~15----------15------15-|-----15------15------15------15~~~

B|--------------------------------|--------------------------------|

G|~~~~~~~~~12----------12------12-|-----12------12------12------12~~~

D|--------------------------------|--------------------------------|

A|--------------------------------|--------------------------------|

E|--------------------------------|--------------------------------|

 

 | 1 - & - 2 - & - 3 - & - 4 - & -| 1 - & - 2 - & - 3 - & - 4 - & -|

 

 

Repeat until...

 

Part A:

 

___E9______________________________________________________________

 

e|--------------------------------|--------------------------------|

B|--------------------------------|-------------11------12---------|

G|--------------------------------|-------------11------12---------|

D|-5------------------------------|-------------11------12------5~~~

A|---------7-----------5---7------|-------------10------11---------|

E|-------------5--h7-----------0--|--------------------------------|

 

 | 1 - & - 2 - & - 3 - & - 4 - & -| 1 - & - 2 - & - 3 - & - 4 - & -|

 

 

___E9__________________________C7_______________B7_________________

 

e|--------------------------------|--------------------------------|

B|--------------------------------|-----5---------------4----------|

G|--------------------------------|-----3---------------2----------|

D|~~~~~~~~------------------------|-----5---------------4----------|

A|---------7-----------5---7---3--|-------------2------------------|

E|-------------5--h7--------------|--------------------------------|

 

 

Repeat until...

 

Part B:

 

___A_______G#__A_______________G#___A_______G#__A_______________G#_

         " A   way                          we  go... "

e|--------------------------------|--------------------------------|

B|--------------------------------|--------------------------------|

G|--------------------------------|--------------------------------|

D|-7---7---6---7---------------6--|-7---7---6---7---------------6--|

A|-7---7---6---7---------------6--|-7---7---6---7---------------6--|

E|-5---5---4---5---------------4--|-5---5---4---5---------------4--|

 

___A_______G#__A___________________________________________________

         " so  fast... "

e|--------------------------------|--------------------------------|

B|--------------------------------|--------------------------------|

G|--------------------------------|---------0-----------0----------|

D|-7---7---6---7------------------|-----4-----------2-----------0--|

A|-7---7---6---7---------------4--|-5-----------3-----------2------|

E|-5---5---4---5------------------|--------------------------------|

 

Repeat.

 

Guitar solo:

 

___E9______________________________________________________________

01:06

e|--------------------------------|--------------------------------|

B|--------------------------------|--------------------------------|

G|--------------------------------|-----------------------------9~~~

D|--------------------------------|---------------------9---11-----|

A|--------------------------------|--------------------------------|

E|--------------------------------|--------------------------------|

 

___E9______________________________________________________________

 

e|--------------------------------|--------------------------------|

B|--------------------------------|--------------------------------|

G|~~~~~~~~------------------------|-----------------------------9~~~~

D|---------11--9------------------|---------------------9---11-----|

A|---------------11s9--7---9---7~~~~~~~~\--------------------------|

E|--------------------------------|--------------------------------|

 

___E9______________________________________________________________

 

e|-------------------------9------|--------------------------------|

B|---------------------9-------12-|--------------------------------|

G|~~~~~~~~-----9---11^------------|-11^-9---11------9~~~-----------|

D|---------11---------------------|-------------11----------11--9--|

A|--------------------------------|--------------------------------|

E|--------------------------------|--------------------------------|

 

___E9______________________________________________________________

01:13

e|--------------------------------|-----------------------------9~~~~

B|--------------------------------|---------------------12^--------|

G|-9~~~~~~------------------------|--------------------------------|

D|-9~~~~~~-11--9------------------|--------------------------------|

A|---------------11s9--7---9---7~~~~~~~~\--------------------------|

E|--------------------------------|--------------------------------|

 

___E9______________________________________________________________

 

e|---------9---------------9------|--------------------------------|

B|-------------12--------------12-|--------------------------------|

G|-----------------11^r~----------|-11^r11p9-11p9---11--9-------9~~~

D|--------------------------------|--------------11---------11-----|

A|--------------------------------|--------------------------------|

E|--------------------------------|--------------------------------|

 

___E9______________________________________________________________

01:19

e|--------------------------------|-12-----------------------------|

B|-----------------------------12-|-----15b17~~--------------------|

G|~~~~~------------9---11-/13-----|--------------------------------|

D|---------11--9------------------|--------------------------------|

A|--------------------------------|--------------------------------|

E|--------------------------------|--------------------------------|

 

___E9______________________________________________________________

01:23

e|-----15b17~~~~~~~15~~^--12h15p12--12-----------------------------|

B|--------------------------------15--15-12--12--------------------|

G|--------------------------------|--------14--12-14--------12p11--|

D|--------------------------------|-----------------14-12p11------14-

A|--------------------------------|--------------------------------|

E|--------------------------------|--------------------------------|

 

___E9______________________________________________________________

 

e|--------------------------------|--------------------------------|

B|--------------------------------|--------------------------------|

G|-11------12^-----14--12---------|--------------------------------|

D|----14~~~----14--14------14--12-|--------------------------------|

A|--------------------------------14s12-10--12--10-----------------|

E|--------------------------------|-----------------12\------------|

 

___E9______________________________________________________________

01:29

e|--------------------------------|--------------------------------|

B|-----------------14~~^r~~~~~~---|--------------------------------|

G|-------------12--14~~^r~~~~~~---|-12------14--12-----------------|

D|-----12--14---------------------|-----14--14------14--12--14\----|

A|--------------------------------|--------------------------------|

E|/12-----------------------------|--------------------------------|

 

 

Part C:

 

___D_______________________________________________________________

 " Speeding I'm    speeding on the  highways really screaming like a... "

e|--------------------------------|--------------------------------|

B|-3------------------------------|--------------------------------|

G|-2------------------------------|--------------------------------|

D|-0------------------------------|--------------------------------|

A|--------------------------------|--------------------------------|

E|--------------------------------|--------------------------------|

 

 

___A______________________________________________________________

 " jet tonight... "

e|--------------------------------|--------------------------------|

B|-2------------------------------|--------------------------------|

G|-2------------------------------|--------------------------------|

D|-2------------------------------|--------------------------------|

A|-0------------------------------|--------------------------------|

E|----------------->>>>>>>>>>>>>>>>>>>>>>>>>>>>>>>>>>>>>>>>>>>>>---|

                  (_________________pick scrape_________________)

 

Repeat.

 

(Lick...)

 

___A_(x0222x)______________________________________________________

 " streamlined thrill... "

e|--------------------------------|--------------------------------|

B|--------------------------------|--------------------------------|

G|---------4b6~~~~~~~~~~~~~~~~~~~~~~4---2---4---2------------------|

D|--------------------------------|-----------------4--------------|

A|--------------------------------|---------------------3---2---0--|

E|--------------------------------|--------------------------------|

 

Part D:

 

___E9______________________________________________________________

01:57

e|-15--14------12-----------------|-----------------------------15-|

B|---------15------12--15---------|--------------------------------|

G|-------------------------14--12-|--------------------------------|

D|--------------------------------|--------------------------------|

A|--------------------------------|--------------------------------|

E|--------------------------------|--------------------------------|

 

___E9______________________________________________________________

 

e|-----14------12-----------------|--------------------------------|

B|---------15------12--15---------|--------------------------------|

G|-------------------------14--14^~~~r14p12h14~~~~~-12-------------|

D|--------------------------------|---------------------14--12-----|

A|--------------------------------|--------------------------------|

E|--------------------------------|--------------------------------|

 

___E9______________________________________________________________

02:05

e|-15--14------12-----------------|-----------------------------15~~

B|---------15------12--15---------|--------------------------------|

G|-------------------------14--12-|--------------------------------|

D|--------------------------------|--------------------------------|

A|--------------------------------|--------------------------------|

E|--------------------------------|--------------------------------|

 

___E9______________________________________________________________

 

e|-----14------12-----------------|-12-----------------------------|

B|---------15------12--15------12-|-----15-------------------------|

G|-------------------------14^----|---------14^r~12-14------12-----|

D|--------------------------------|---------------------14------14~~

A|--------------------------------|--------------------------------|

E|--------------------------------|--------------------------------|

 

___E9______________________________________________________________

 

e|--------------------------------|--------------------------------|

B|--------------------------------|-----------------------------12~~

G|--------------------------------|-----------------------------12~~

D|-----12-------------------------|-----------------------------12~~\

A|-------14s12-10--12------10-----|---------------------12--14-----|

E|---------------------12------12~~~\------------------------------|

 

___E9______________________________________________________________

 

e|--------------------------------|-----------------------------15~~

B|-------------12--------------12-|-------------12-----------------|

G|-------------12--------------12-|-------------12----------12-----|

D|\------------12\-------------12\--------------12\-----12---------|

A|--------/14-------------/14-----|--------/14---------------------|

E|--------------------------------|--------------------------------|

 

___E9______________________________________________________________

02:18

e|-15--14------12-----------------|--------------------------------|

B|---------15------12--15---------|--------------------------------|

G|-------------------------14--12-|-------------------------14^~~~~~

D|-----------------------------12-|--------------------------------|

A|--------------------------------|--------------------------------|

E|--------------------------------|--------------------------------|

 

___E9______________________________________________________________

 

e|--------------------------------|--------------------------------|

B|--------------------------------|--------------------------------|

G|-14~~~~~~12--------------12-----|-----------------12-------------|

D|-------------14--12------12-----|---------12----------14\--------|

A|---------------------14------14-|-----14------14-----------------|

E|--------------------------------|-12-----------------------------|

 

 

Repeat part B:

 

 

Repeat part A:  (with E-Bow solo and piano solo, to fade...)

 

 

Words & Music by Bill Nelson

© Bill Nelson 2019

  • Facebook Social Icon
  • Twitter Social Icon