Art/Empire/Industry

-------------------------------------------------------------------------------

Art Empire Industry - Red Noise

-------------------------------------------------------------------------------

 

Tabbed by twilightcapers

 

Tuning: EADGBe

 

 

 

Intro:

 

___________________________________________________________________

 

e|-----8--------------------------|--------------------------------|

B|---------7----------------------|--------------------------------|

G|-------------6---5--------------|--------------------------------|

D|---------------------6---5------|-7-------7----------------------|

A|-----------------------------6--|-5-------5-------4-4-4-4-4------|

E|--------------------------------|-----------------2-2-2-2-2------|

 

 | 1 - & - 2 - & - 3 - & - 4 - & -| 1 - & - 2 - & - 3 - & - 4 - & -|

 

 

____________________________________D_______________F#_____________

 

e|-----8--------------------------|--------------------------------|

B|---------7----------------------|--------------------------------|

G|-------------6---5--------------|--------------------------------|

D|---------------------6---5------|-7-------7----------------------|

A|-----------------------------6--|-5-------5-------4-4-4-4-4------|

E|--------------------------------|-----------------2-2-2-2-2------|

 

 

____________________________________D_______________F#_____________

 

e|-----8--------------------------|--------------------------------|

B|---------7----------------------|--------------------------------|

G|-------------6---5--------------|--------------------------------|

D|---------------------6---5------|-7-------7----------------------|

A|-----------------------------6--|-5-------5-------4-4-4-4-4------|

E|--------------------------------|-----------------2-2-2-2-2------|

 

___B_______________C______________

 

e|--------------------------------|

B|--------------------------------|

G|--------------------------------|

D|-4-------4-------5-5-5-5-5------|

A|-2-------2-------3-3-3-3-3------|

E|--------------------------------|

 

 

Verse:

 

___F________________________________Bb__________Dm_________________

1)           " Paintings   are   subversive...

2)           " Freedom     is     machines...

3)           " All print  is   propaganda...                   We..."

e|--------------------------------|--------------------------------|

B|--------------------------------|--------------------------------|

G|--------------------------------|-3-----------7------------------|

D|-3-----------3---3---3---3---3--|-3-----------7------------------|

A|-3-----------3---3---3---3---3--|-1-----------5------------------|

E|-1-----------1---1---1---1---1--|----------------------------(0)-|

 

 | 1 - & - 2 - & - 3 - & - 4 - & -| 1 - & - 2 - & - 3 - & - 4 - & -|

 

 

___Bb__________C__________________

4)"Know what it means to sing..."

e|--------------------------------|

B|--------------------------------|

G|-------------5------------------|

D|-5---5-------5------------------|

A|-5---5-------3------------------|

E|-3---3--------------------------|

 

 

Chorus:

 

___F___________C_______________Dm__________________________________

1)"Art         Empire          Industry..."

2)"Art         Empire          Industry..."

3)"Art         Empire          Industry..."

e|--------------------------------|--------------------------------|

B|--------------------------------|--------------------------------|

G|-------------5---------------7--|--------------------------------|

D|-3-----------5---------------7--|-------------3------------------|

A|-3-----------3---------------5--|-------------1-------1---0------|

E|-1------------------------------|-----------------------------3--|

 

 

___C_______________________________________________________________

4)

e|--------------------------------|--------------------------------|

B|--------------------------------|--------------------------------|

G|-5-------5-------5-------5------|--------------------------------|

D|-5-------5-------5-------5------|--------------------------------|

A|-3-------3-------3-------3------|--------------------------------|

E|--------------------------------|--------------------------------|

 

___C_______________________________________________________________

5)

e|--------------------------------|--------------------------------|

B|--------------------------------|--------------------------------|

G|-5-------5-------5-------5------|--------------------------------|

D|-5-------5-------5-------5------|--------------------------------|

A|-3-------3-------3-------3------|--------------------------------|

E|--------------------------------|--------------------------------|

 

Repeat verse.

Repeat chorus.

Repeat intro riff.

 

 

Middle part:

 

___Bb_______________________________F______________________________

  "Speed       and         ma    -  chines     are          the..."

e|--------------------------------|--------------------------------|

B|--------------------------------|--------------------------------|

G|--------------------------------|--------------------------------|

D|--------------------------------|--------------------------------|

A|-1-----------0------------------|-------------------------0------|

E|-------------------------3------|-1-----------3------------------|

 

 | 1 - & - 2 - & - 3 - & - 4 - & -| 1 - & - 2 - & - 3 - & - 4 - & -|

 

___Bb_______________________________F______________________________

 " Art         of          our      em     -   pire         the..."

e|--------------------------------|--------------------------------|

B|--------------------------------|--------------------------------|

G|--------------------------------|--------------------------------|

D|--------------------------------|--------------------------------|

A|-1-----------0------------------|-3------------------------------|

E|-------------------------3------|-------------1-----------3------|

 

___Bb_______________________________F______________________________

  "New         laws        of       grav    -   it      -   y..."

e|--------------------------------|--------------------------------|

B|--------------------------------|--------------------------------|

G|--------------------------------|--------------------------------|

D|--------------------------------|--------------------------------|

A|-1-----------0------------------|-------------------------0------|

E|-------------------------3------|-1-----------3------------------|

 

 

___Bb_______________________________C______________________________

  "must        be          o    -   beyed...                 Our..."

e|--------------------------------|--------------------------------|

B|--------------------------------|--------------------------------|

G|--------------------------------|--------------------------------|

D|--------------------------------|--------------------------------|

A|-1-----------0------------------|-3------------------------------|

E|-------------------------3------|--------------------------------|

 

 

___Bb_______________________________F______________________________

  "lives       are         a        mo     -    del         of..." 

e|--------------------------------|--------------------------------|

B|--------------------------------|--------------------------------|

G|--------------------------------|--------------------------------|

D|-0------------------------------|--------------------------------|

A|-------------3-----------1------|-0-----------1-----------3------|

E|--------------------------------|--------------------------------|

 

___Bb_______________________________F______________________________

  "planned     ob     -    so   -   les    -    cence       our..."

e|--------------------------------|--------------------------------|

B|--------------------------------|--------------------------------|

G|--------------------------------|--------------------------------|

D|-0------------------------------|-3------------------------------|

A|-------------3-----------1------|-------------0-----------1------|

E|-------------------------------|---------------------------------|

 

___Bb_______________________________F______________________________

  "Great       en     -    gin   -  eers        are         the..."

e|--------------------------------|--------------------------------|

B|--------------------------------|--------------------------------|

G|--------------------------------|--------------------------------|

D|-0------------------------------|--------------------------------|

A|-------------3-----------1------|-0-----------1-----------3------|

E|--------------------------------|--------------------------------|

 

___Bb_____________________________

  "Priests     of          the..."

e|--------------------------------|

B|--------------------------------|

G|--------------------------------|

D|-0-----------------------0------|

A|-------------3------------------|

E|--------------------------------|

 

___C_______________________________________________________________

  "Age..."

e|--------------------------------|--------------------------------|

B|--------------------------------|--------------------------------|

G|-5-------5-------5-------5------|--------------------------------|

D|-5-------5-------5-------5------|--------------------------------|

A|-3-------3-------3-------3------|--------------------------------|

E|--------------------------------|--------------------------------|

 

___C_______________________________________________________________

 

e|--------------------------------|--------------------------------|

B|--------------------------------|--------------------------------|

G|-5-------5-------5-------5------|--------------------------------|

D|-5-------5-------5-------5------|--------------------------------|

A|-3-------3-------3-------3------|--------------------------------|

E|--------------------------------|--------------------------------|

 

 

Repeat Intro riff.

Repeat Verse.

Repeat Chorus.

Repeat Verse.

Repeat Chorus.

 

Vocoder and drums:

 

"Art! Empire! Industry!" etc

 

Ending:

 

___________________________________________________________________

 

e|-----8--------------------------|--------------------------------|

B|---------7----------------------|--------------------------------|

G|-------------6---5--------------|--------------------------------|

D|---------------------6---5------|-7-------7----------------------|

A|-----------------------------6--|-5-------5-------4-4-4-4-4------|

E|--------------------------------|-----------------2-2-2-2-2------|

 

 | 1 - & - 2 - & - 3 - & - 4 - & -| 1 - & - 2 - & - 3 - & - 4 - & -|

 

 

____________________________________D_______________F#_____________

 

e|-----8--------------------------|--------------------------------|

B|---------7----------------------|--------------------------------|

G|-------------6---5--------------|--------------------------------|

D|---------------------6---5------|-7-------7----------------------|

A|-----------------------------6--|-5-------5-------4-4-4-4-4------|

E|--------------------------------|-----------------2-2-2-2-2------|

 

 

____________________________________D_______________F#_____________

 

e|-----8--------------------------|--------------------------------|

B|---------7----------------------|--------------------------------|

G|-------------6---5--------------|--------------------------------|

D|---------------------6---5------|-7-------7----------------------|

A|-----------------------------6--|-5-------5-------4-4-4-4-4------|

E|--------------------------------|-----------------2-2-2-2-2------|

 

___Bb______________C________________F______________________________

 

e|--------------------------------|--------------------------------|

B|--------------------------------|--------------------------------|

G|-3-------3-------5-5-5-5-5------|--------------------------------|

D|-3-------3-------5-5-5-5-5------|-3------------------------------|

A|-1-------1-------3-3-3-3-3------|-3------------------------------|

E|--------------------------------|-1------------------------------|

Words & Music by Bill Nelson

© Bill Nelson 2019

  • Facebook Social Icon
  • Twitter Social Icon